ISO-10303-21;
HEADER;
/* Generated by software containing ST-Developer
 * from STEP Tools, Inc. (www.steptools.com) 
 */
/* OPTION: using custom schema-name function */

FILE_DESCRIPTION(
/* description */ (''),
/* implementation_level */ '2;1');

FILE_NAME(
/* name */ 'TC090204N.stp',
/* time_stamp */ '2021-11-11T11:52:00+09:00',
/* author */ (''),
/* organization */ (''),
/* preprocessor_version */ 'ST-DEVELOPER v16',
/* originating_system */ 'SIEMENS PLM Software NX 10.0',
/* authorisation */ '');

FILE_SCHEMA (('AUTOMOTIVE_DESIGN { 1 0 10303 214 3 1 1 1 }'));
ENDSEC;

DATA;
#10=CONSTRUCTIVE_GEOMETRY_REPRESENTATION_RELATIONSHIP(
'supplemental geometry','',#26,#11);
#11=CONSTRUCTIVE_GEOMETRY_REPRESENTATION('supplemental geometry',(#330,
#331,#332),#535);
#12=GEOMETRICALLY_BOUNDED_WIREFRAME_SHAPE_REPRESENTATION(
'TC090204N-None',(#27),#535);
#13=SHAPE_REPRESENTATION_RELATIONSHIP('None',
'relationship between TC090204N-None and TC090204N-None',#26,#15);
#14=SHAPE_REPRESENTATION_RELATIONSHIP('None',
'relationship between TC090204N-None and TC090204N-None',#26,#12);
#15=ADVANCED_BREP_SHAPE_REPRESENTATION('TC090204N-None',(#33),#535);
#16=SHAPE_DEFINITION_REPRESENTATION(#17,#26);
#17=PRODUCT_DEFINITION_SHAPE('','',#18);
#18=PRODUCT_DEFINITION('part definition','',#20,#19);
#19=PRODUCT_DEFINITION_CONTEXT('part definition',#25,'design');
#20=PRODUCT_DEFINITION_FORMATION_WITH_SPECIFIED_SOURCE(' ',' ',#22,
 .NOT_KNOWN.);
#21=PRODUCT_RELATED_PRODUCT_CATEGORY('part','',(#22));
#22=PRODUCT('TC090204L','TC090204L','NOT SPECIFIED',(#23));
#23=PRODUCT_CONTEXT('',#25,'mechanical');
#24=APPLICATION_PROTOCOL_DEFINITION('international standard',
'automotive_design',2010,#25);
#25=APPLICATION_CONTEXT(
'core data for automotive mechanical design processes');
#26=SHAPE_REPRESENTATION('TC090204N-None',(#326),#535);
#27=GEOMETRIC_CURVE_SET('None',(#457,#458,#250,#251,#252,#253,#254,#255));
#28=SURFACE_STYLE_USAGE(.BOTH.,#29);
#29=SURFACE_SIDE_STYLE('',(#30));
#30=SURFACE_STYLE_FILL_AREA(#31);
#31=FILL_AREA_STYLE('',(#32));
#32=FILL_AREA_STYLE_COLOUR('',#212);
#33=MANIFOLD_SOLID_BREP('',#34);
#34=CLOSED_SHELL('',(#56,#57,#58,#59,#60,#61,#62,#63,#64,#65,#66,#67,#68,
#69));
#35=TOROIDAL_SURFACE('',#358,3.25,2.);
#36=TOROIDAL_SURFACE('',#360,3.25,2.);
#37=CYLINDRICAL_SURFACE('',#352,1.25);
#38=CYLINDRICAL_SURFACE('',#354,1.25);
#39=CYLINDRICAL_SURFACE('',#361,1.65);
#40=CYLINDRICAL_SURFACE('',#362,1.65);
#41=CONICAL_SURFACE('',#340,0.2538863725255,7.);
#42=CONICAL_SURFACE('',#347,0.2538863725255,7.);
#43=CONICAL_SURFACE('',#349,0.2538863725255,7.);
#44=FACE_OUTER_BOUND('',#81,.T.);
#45=FACE_OUTER_BOUND('',#84,.T.);
#46=FACE_OUTER_BOUND('',#85,.T.);
#47=FACE_OUTER_BOUND('',#86,.T.);
#48=FACE_OUTER_BOUND('',#87,.T.);
#49=FACE_OUTER_BOUND('',#88,.T.);
#50=FACE_OUTER_BOUND('',#89,.T.);
#51=FACE_OUTER_BOUND('',#90,.T.);
#52=FACE_OUTER_BOUND('',#91,.T.);
#53=FACE_OUTER_BOUND('',#92,.T.);
#54=FACE_OUTER_BOUND('',#93,.T.);
#55=FACE_OUTER_BOUND('',#94,.T.);
#56=ADVANCED_FACE('',(#75,#76),#70,.T.);
#57=ADVANCED_FACE('',(#44),#41,.T.);
#58=ADVANCED_FACE('',(#77,#78),#71,.F.);
#59=ADVANCED_FACE('',(#45),#72,.T.);
#60=ADVANCED_FACE('',(#46),#42,.T.);
#61=ADVANCED_FACE('',(#47),#73,.T.);
#62=ADVANCED_FACE('',(#48),#43,.T.);
#63=ADVANCED_FACE('',(#49),#74,.T.);
#64=ADVANCED_FACE('',(#50),#37,.F.);
#65=ADVANCED_FACE('',(#51),#38,.F.);
#66=ADVANCED_FACE('',(#52),#35,.T.);
#67=ADVANCED_FACE('',(#53),#36,.T.);
#68=ADVANCED_FACE('',(#54),#39,.F.);
#69=ADVANCED_FACE('',(#55),#40,.F.);
#70=PLANE('',#338);
#71=PLANE('',#345);
#72=PLANE('',#346);
#73=PLANE('',#348);
#74=PLANE('',#350);
#75=FACE_BOUND('',#79,.T.);
#76=FACE_BOUND('',#80,.T.);
#77=FACE_BOUND('',#82,.T.);
#78=FACE_BOUND('',#83,.T.);
#79=EDGE_LOOP('',(#95,#96,#97,#98,#99,#100));
#80=EDGE_LOOP('',(#101,#102));
#81=EDGE_LOOP('',(#103,#104,#105,#106));
#82=EDGE_LOOP('',(#107,#108,#109,#110,#111,#112));
#83=EDGE_LOOP('',(#113,#114));
#84=EDGE_LOOP('',(#115,#116,#117,#118));
#85=EDGE_LOOP('',(#119,#120,#121,#122));
#86=EDGE_LOOP('',(#123,#124,#125,#126));
#87=EDGE_LOOP('',(#127,#128,#129,#130));
#88=EDGE_LOOP('',(#131,#132,#133,#134));
#89=EDGE_LOOP('',(#135,#136,#137,#138));
#90=EDGE_LOOP('',(#139,#140,#141,#142));
#91=EDGE_LOOP('',(#143,#144,#145,#146));
#92=EDGE_LOOP('',(#147,#148,#149,#150));
#93=EDGE_LOOP('',(#151,#152,#153,#154));
#94=EDGE_LOOP('',(#155,#156,#157,#158));
#95=ORIENTED_EDGE('',*,*,#179,.F.);
#96=ORIENTED_EDGE('',*,*,#180,.F.);
#97=ORIENTED_EDGE('',*,*,#181,.F.);
#98=ORIENTED_EDGE('',*,*,#182,.F.);
#99=ORIENTED_EDGE('',*,*,#183,.F.);
#100=ORIENTED_EDGE('',*,*,#184,.F.);
#101=ORIENTED_EDGE('',*,*,#185,.F.);
#102=ORIENTED_EDGE('',*,*,#186,.F.);
#103=ORIENTED_EDGE('',*,*,#187,.F.);
#104=ORIENTED_EDGE('',*,*,#184,.T.);
#105=ORIENTED_EDGE('',*,*,#188,.F.);
#106=ORIENTED_EDGE('',*,*,#189,.T.);
#107=ORIENTED_EDGE('',*,*,#190,.F.);
#108=ORIENTED_EDGE('',*,*,#191,.F.);
#109=ORIENTED_EDGE('',*,*,#192,.T.);
#110=ORIENTED_EDGE('',*,*,#193,.F.);
#111=ORIENTED_EDGE('',*,*,#194,.F.);
#112=ORIENTED_EDGE('',*,*,#189,.F.);
#113=ORIENTED_EDGE('',*,*,#195,.F.);
#114=ORIENTED_EDGE('',*,*,#196,.F.);
#115=ORIENTED_EDGE('',*,*,#194,.T.);
#116=ORIENTED_EDGE('',*,*,#197,.T.);
#117=ORIENTED_EDGE('',*,*,#179,.T.);
#118=ORIENTED_EDGE('',*,*,#187,.T.);
#119=ORIENTED_EDGE('',*,*,#198,.F.);
#120=ORIENTED_EDGE('',*,*,#180,.T.);
#121=ORIENTED_EDGE('',*,*,#197,.F.);
#122=ORIENTED_EDGE('',*,*,#193,.T.);
#123=ORIENTED_EDGE('',*,*,#181,.T.);
#124=ORIENTED_EDGE('',*,*,#198,.T.);
#125=ORIENTED_EDGE('',*,*,#192,.F.);
#126=ORIENTED_EDGE('',*,*,#199,.T.);
#127=ORIENTED_EDGE('',*,*,#200,.F.);
#128=ORIENTED_EDGE('',*,*,#182,.T.);
#129=ORIENTED_EDGE('',*,*,#199,.F.);
#130=ORIENTED_EDGE('',*,*,#191,.T.);
#131=ORIENTED_EDGE('',*,*,#183,.T.);
#132=ORIENTED_EDGE('',*,*,#200,.T.);
#133=ORIENTED_EDGE('',*,*,#190,.T.);
#134=ORIENTED_EDGE('',*,*,#188,.T.);
#135=ORIENTED_EDGE('',*,*,#201,.T.);
#136=ORIENTED_EDGE('',*,*,#202,.T.);
#137=ORIENTED_EDGE('',*,*,#203,.F.);
#138=ORIENTED_EDGE('',*,*,#196,.T.);
#139=ORIENTED_EDGE('',*,*,#203,.T.);
#140=ORIENTED_EDGE('',*,*,#204,.T.);
#141=ORIENTED_EDGE('',*,*,#201,.F.);
#142=ORIENTED_EDGE('',*,*,#195,.T.);
#143=ORIENTED_EDGE('',*,*,#205,.F.);
#144=ORIENTED_EDGE('',*,*,#206,.T.);
#145=ORIENTED_EDGE('',*,*,#204,.F.);
#146=ORIENTED_EDGE('',*,*,#207,.F.);
#147=ORIENTED_EDGE('',*,*,#202,.F.);
#148=ORIENTED_EDGE('',*,*,#206,.F.);
#149=ORIENTED_EDGE('',*,*,#208,.F.);
#150=ORIENTED_EDGE('',*,*,#207,.T.);
#151=ORIENTED_EDGE('',*,*,#209,.F.);
#152=ORIENTED_EDGE('',*,*,#208,.T.);
#153=ORIENTED_EDGE('',*,*,#210,.T.);
#154=ORIENTED_EDGE('',*,*,#186,.T.);
#155=ORIENTED_EDGE('',*,*,#210,.F.);
#156=ORIENTED_EDGE('',*,*,#205,.T.);
#157=ORIENTED_EDGE('',*,*,#209,.T.);
#158=ORIENTED_EDGE('',*,*,#185,.T.);
#159=VERTEX_POINT('',#469);
#160=VERTEX_POINT('',#470);
#161=VERTEX_POINT('',#472);
#162=VERTEX_POINT('',#474);
#163=VERTEX_POINT('',#476);
#164=VERTEX_POINT('',#478);
#165=VERTEX_POINT('',#481);
#166=VERTEX_POINT('',#482);
#167=VERTEX_POINT('',#486);
#168=VERTEX_POINT('',#488);
#169=VERTEX_POINT('',#492);
#170=VERTEX_POINT('',#494);
#171=VERTEX_POINT('',#496);
#172=VERTEX_POINT('',#498);
#173=VERTEX_POINT('',#501);
#174=VERTEX_POINT('',#502);
#175=VERTEX_POINT('',#515);
#176=VERTEX_POINT('',#517);
#177=VERTEX_POINT('',#523);
#178=VERTEX_POINT('',#524);
#179=EDGE_CURVE('',#159,#160,#259,.T.);
#180=EDGE_CURVE('',#161,#159,#216,.T.);
#181=EDGE_CURVE('',#162,#161,#260,.T.);
#182=EDGE_CURVE('',#163,#162,#217,.T.);
#183=EDGE_CURVE('',#164,#163,#261,.T.);
#184=EDGE_CURVE('',#160,#164,#218,.T.);
#185=EDGE_CURVE('',#165,#166,#219,.T.);
#186=EDGE_CURVE('',#166,#165,#220,.T.);
#187=EDGE_CURVE('',#160,#167,#262,.T.);
#188=EDGE_CURVE('',#168,#164,#263,.T.);
#189=EDGE_CURVE('',#168,#167,#221,.T.);
#190=EDGE_CURVE('',#169,#168,#264,.T.);
#191=EDGE_CURVE('',#170,#169,#222,.T.);
#192=EDGE_CURVE('',#170,#171,#265,.T.);
#193=EDGE_CURVE('',#172,#171,#223,.T.);
#194=EDGE_CURVE('',#167,#172,#266,.T.);
#195=EDGE_CURVE('',#173,#174,#224,.T.);
#196=EDGE_CURVE('',#174,#173,#225,.T.);
#197=EDGE_CURVE('',#172,#159,#267,.T.);
#198=EDGE_CURVE('',#161,#171,#268,.T.);
#199=EDGE_CURVE('',#170,#162,#269,.T.);
#200=EDGE_CURVE('',#163,#169,#270,.T.);
#201=EDGE_CURVE('',#173,#175,#271,.T.);
#202=EDGE_CURVE('',#175,#176,#226,.T.);
#203=EDGE_CURVE('',#174,#176,#272,.T.);
#204=EDGE_CURVE('',#176,#175,#227,.T.);
#205=EDGE_CURVE('',#177,#178,#228,.T.);
#206=EDGE_CURVE('',#177,#175,#229,.T.);
#207=EDGE_CURVE('',#178,#176,#230,.T.);
#208=EDGE_CURVE('',#178,#177,#231,.T.);
#209=EDGE_CURVE('',#178,#165,#273,.T.);
#210=EDGE_CURVE('',#177,#166,#274,.T.);
#211=COLOUR_RGB('Strong Stone',0.576470588235294,0.54508278019379,0.392156862745098);
#212=COLOUR_RGB('cutting part',0.8,0.8,0.8);
#213=CIRCLE('',#327,0.4);
#214=CIRCLE('',#328,0.4);
#215=CIRCLE('',#329,0.4);
#216=CIRCLE('',#333,0.4);
#217=CIRCLE('',#334,0.4);
#218=CIRCLE('',#335,0.4);
#219=CIRCLE('',#336,1.65);
#220=CIRCLE('',#337,1.65);
#221=CIRCLE('',#339,0.107772745051);
#222=CIRCLE('',#341,0.107772745051);
#223=CIRCLE('',#342,0.107772745051);
#224=CIRCLE('',#343,1.25);
#225=CIRCLE('',#344,1.25);
#226=CIRCLE('',#351,1.25);
#227=CIRCLE('',#353,1.25);
#228=CIRCLE('',#355,1.65);
#229=CIRCLE('',#356,2.);
#230=CIRCLE('',#357,2.);
#231=CIRCLE('',#359,1.65);
#232=CURVE_STYLE('',#241,POSITIVE_LENGTH_MEASURE(0.18),#325);
#233=CURVE_STYLE('',#242,POSITIVE_LENGTH_MEASURE(0.18),#325);
#234=CURVE_STYLE('',#243,POSITIVE_LENGTH_MEASURE(0.18),#325);
#235=CURVE_STYLE('',#244,POSITIVE_LENGTH_MEASURE(0.18),#325);
#236=CURVE_STYLE('',#245,POSITIVE_LENGTH_MEASURE(0.18),#325);
#237=CURVE_STYLE('',#246,POSITIVE_LENGTH_MEASURE(0.18),#325);
#238=CURVE_STYLE('',#247,POSITIVE_LENGTH_MEASURE(0.13),#324);
#239=CURVE_STYLE('',#248,POSITIVE_LENGTH_MEASURE(0.13),#324);
#240=CURVE_STYLE('',#249,POSITIVE_LENGTH_MEASURE(0.13),#211);
#241=DRAUGHTING_PRE_DEFINED_CURVE_FONT('continuous');
#242=DRAUGHTING_PRE_DEFINED_CURVE_FONT('continuous');
#243=DRAUGHTING_PRE_DEFINED_CURVE_FONT('continuous');
#244=DRAUGHTING_PRE_DEFINED_CURVE_FONT('continuous');
#245=DRAUGHTING_PRE_DEFINED_CURVE_FONT('continuous');
#246=DRAUGHTING_PRE_DEFINED_CURVE_FONT('continuous');
#247=DRAUGHTING_PRE_DEFINED_CURVE_FONT('continuous');
#248=DRAUGHTING_PRE_DEFINED_CURVE_FONT('continuous');
#249=DRAUGHTING_PRE_DEFINED_CURVE_FONT('continuous');
#250=TRIMMED_CURVE('',#256,(PARAMETER_VALUE(0.)),(PARAMETER_VALUE(1.)),
 .T.,.PARAMETER.);
#251=TRIMMED_CURVE('',#257,(PARAMETER_VALUE(0.)),(PARAMETER_VALUE(1.)),
 .T.,.PARAMETER.);
#252=TRIMMED_CURVE('',#258,(PARAMETER_VALUE(0.)),(PARAMETER_VALUE(1.)),
 .T.,.PARAMETER.);
#253=TRIMMED_CURVE('',#213,(PARAMETER_VALUE(0.)),(PARAMETER_VALUE(120.0000000002)),
 .T.,.PARAMETER.);
#254=TRIMMED_CURVE('',#214,(PARAMETER_VALUE(0.)),(PARAMETER_VALUE(120.0000000002)),
 .T.,.PARAMETER.);
#255=TRIMMED_CURVE('',#215,(PARAMETER_VALUE(0.)),(PARAMETER_VALUE(120.0000000002)),
 .T.,.PARAMETER.);
#256=LINE('',#459,#275);
#257=LINE('',#460,#276);
#258=LINE('',#461,#277);
#259=LINE('',#468,#278);
#260=LINE('',#473,#279);
#261=LINE('',#477,#280);
#262=LINE('',#485,#281);
#263=LINE('',#487,#282);
#264=LINE('',#491,#283);
#265=LINE('',#495,#284);
#266=LINE('',#499,#285);
#267=LINE('',#505,#286);
#268=LINE('',#507,#287);
#269=LINE('',#509,#288);
#270=LINE('',#511,#289);
#271=LINE('',#514,#290);
#272=LINE('',#518,#291);
#273=LINE('',#530,#292);
#274=LINE('',#531,#293);
#275=VECTOR('',#365,8.24456184402472);
#276=VECTOR('',#366,8.244561844028);
#277=VECTOR('',#367,8.24456184402672);
#278=VECTOR('',#380,1.);
#279=VECTOR('',#383,1.);
#280=VECTOR('',#386,1.);
#281=VECTOR('',#395,1.);
#282=VECTOR('',#396,1.);
#283=VECTOR('',#401,1.);
#284=VECTOR('',#404,1.);
#285=VECTOR('',#407,1.);
#286=VECTOR('',#414,1.);
#287=VECTOR('',#417,1.);
#288=VECTOR('',#420,1.);
#289=VECTOR('',#423,1.);
#290=VECTOR('',#428,1.);
#291=VECTOR('',#431,1.);
#292=VECTOR('',#450,1.);
#293=VECTOR('',#451,1.);
#294=PRESENTATION_LAYER_ASSIGNMENT('1','Layer 1',(#457,#458,#330,#331,#332,
#33));
#295=PRESENTATION_LAYER_ASSIGNMENT('2','Layer 2',(#250,#251,#252,#253,#254,
#255));
#296=STYLED_ITEM('',(#308),#457);
#297=STYLED_ITEM('',(#309),#458);
#298=STYLED_ITEM('',(#310),#250);
#299=STYLED_ITEM('',(#311),#251);
#300=STYLED_ITEM('',(#312),#252);
#301=STYLED_ITEM('',(#313),#253);
#302=STYLED_ITEM('',(#314),#254);
#303=STYLED_ITEM('',(#315),#255);
#304=STYLED_ITEM('',(#316),#330);
#305=STYLED_ITEM('',(#317),#331);
#306=STYLED_ITEM('',(#318),#332);
#307=STYLED_ITEM('',(#319),#33);
#308=PRESENTATION_STYLE_ASSIGNMENT((#320));
#309=PRESENTATION_STYLE_ASSIGNMENT((#321));
#310=PRESENTATION_STYLE_ASSIGNMENT((#232));
#311=PRESENTATION_STYLE_ASSIGNMENT((#233));
#312=PRESENTATION_STYLE_ASSIGNMENT((#234));
#313=PRESENTATION_STYLE_ASSIGNMENT((#235));
#314=PRESENTATION_STYLE_ASSIGNMENT((#236));
#315=PRESENTATION_STYLE_ASSIGNMENT((#237));
#316=PRESENTATION_STYLE_ASSIGNMENT((#238));
#317=PRESENTATION_STYLE_ASSIGNMENT((#239));
#318=PRESENTATION_STYLE_ASSIGNMENT((#240));
#319=PRESENTATION_STYLE_ASSIGNMENT((#28));
#320=POINT_STYLE('',#322,POSITIVE_LENGTH_MEASURE(3.),#324);
#321=POINT_STYLE('',#323,POSITIVE_LENGTH_MEASURE(3.),#324);
#322=PRE_DEFINED_POINT_MARKER_SYMBOL('plus');
#323=PRE_DEFINED_POINT_MARKER_SYMBOL('plus');
#324=DRAUGHTING_PRE_DEFINED_COLOUR('yellow');
#325=DRAUGHTING_PRE_DEFINED_COLOUR('blue');
#326=AXIS2_PLACEMENT_3D('',#456,#363,#364);
#327=AXIS2_PLACEMENT_3D('',#462,#368,#369);
#328=AXIS2_PLACEMENT_3D('',#463,#370,#371);
#329=AXIS2_PLACEMENT_3D('',#464,#372,#373);
#330=AXIS2_PLACEMENT_3D('MCS',#465,#374,#375);
#331=AXIS2_PLACEMENT_3D('PCS',#466,#376,#377);
#332=AXIS2_PLACEMENT_3D('',#467,#378,#379);
#333=AXIS2_PLACEMENT_3D('',#471,#381,#382);
#334=AXIS2_PLACEMENT_3D('',#475,#384,#385);
#335=AXIS2_PLACEMENT_3D('',#479,#387,#388);
#336=AXIS2_PLACEMENT_3D('',#480,#389,#390);
#337=AXIS2_PLACEMENT_3D('',#483,#391,#392);
#338=AXIS2_PLACEMENT_3D('',#484,#393,#394);
#339=AXIS2_PLACEMENT_3D('',#489,#397,#398);
#340=AXIS2_PLACEMENT_3D('',#490,#399,#400);
#341=AXIS2_PLACEMENT_3D('',#493,#402,#403);
#342=AXIS2_PLACEMENT_3D('',#497,#405,#406);
#343=AXIS2_PLACEMENT_3D('',#500,#408,#409);
#344=AXIS2_PLACEMENT_3D('',#503,#410,#411);
#345=AXIS2_PLACEMENT_3D('',#504,#412,#413);
#346=AXIS2_PLACEMENT_3D('',#506,#415,#416);
#347=AXIS2_PLACEMENT_3D('',#508,#418,#419);
#348=AXIS2_PLACEMENT_3D('',#510,#421,#422);
#349=AXIS2_PLACEMENT_3D('',#512,#424,#425);
#350=AXIS2_PLACEMENT_3D('',#513,#426,#427);
#351=AXIS2_PLACEMENT_3D('',#516,#429,#430);
#352=AXIS2_PLACEMENT_3D('',#519,#432,#433);
#353=AXIS2_PLACEMENT_3D('',#520,#434,#435);
#354=AXIS2_PLACEMENT_3D('',#521,#436,#437);
#355=AXIS2_PLACEMENT_3D('',#522,#438,#439);
#356=AXIS2_PLACEMENT_3D('',#525,#440,#441);
#357=AXIS2_PLACEMENT_3D('',#526,#442,#443);
#358=AXIS2_PLACEMENT_3D('',#527,#444,#445);
#359=AXIS2_PLACEMENT_3D('',#528,#446,#447);
#360=AXIS2_PLACEMENT_3D('',#529,#448,#449);
#361=AXIS2_PLACEMENT_3D('',#532,#452,#453);
#362=AXIS2_PLACEMENT_3D('',#533,#454,#455);
#363=DIRECTION('',(0.,0.,1.));
#364=DIRECTION('',(1.,0.,0.));
#365=DIRECTION('',(0.500000000000017,-0.866025403784429,0.));
#366=DIRECTION('',(-1.,0.,0.));
#367=DIRECTION('',(0.500000000000017,0.866025403784429,0.));
#368=DIRECTION('',(0.,0.,-1.));
#369=DIRECTION('',(-0.866025403784721,0.499999999999511,0.));
#370=DIRECTION('',(0.,0.,-1.));
#371=DIRECTION('',(0.866025403782302,0.500000000003701,0.));
#372=DIRECTION('',(0.,0.,-1.));
#373=DIRECTION('',(0.,-1.,0.));
#374=DIRECTION('',(0.,0.,1.));
#375=DIRECTION('',(1.,0.,0.));
#376=DIRECTION('',(0.,0.,1.));
#377=DIRECTION('',(1.,0.,0.));
#378=DIRECTION('',(0.,0.,1.));
#379=DIRECTION('',(1.,0.,0.));
#380=DIRECTION('',(0.500000000000017,0.866025403784429,0.));
#381=DIRECTION('',(0.,0.,-1.));
#382=DIRECTION('',(0.,-1.,0.));
#383=DIRECTION('',(-1.,0.,0.));
#384=DIRECTION('',(0.,0.,-1.));
#385=DIRECTION('',(0.866025403782303,0.500000000003702,0.));
#386=DIRECTION('',(0.500000000000017,-0.866025403784429,0.));
#387=DIRECTION('',(0.,0.,-1.));
#388=DIRECTION('',(-0.86602540378472,0.499999999999511,0.));
#389=DIRECTION('',(0.,0.,1.));
#390=DIRECTION('',(1.,0.,0.));
#391=DIRECTION('',(0.,0.,1.));
#392=DIRECTION('',(-1.,0.,0.));
#393=DIRECTION('',(0.,0.,1.));
#394=DIRECTION('',(-1.,0.,0.));
#395=DIRECTION('',(0.105541947331302,-0.0609346717027014,-0.992546151641323));
#396=DIRECTION('',(0.105541947331303,0.0609346717026118,0.992546151641329));
#397=DIRECTION('',(0.,0.,1.));
#398=DIRECTION('',(0.866025403790792,0.499999999988994,0.));
#399=DIRECTION('',(0.,0.,1.));
#400=DIRECTION('',(-0.866025403784429,0.500000000000017,-1.99148881026764E-16));
#401=DIRECTION('',(-0.500000000000017,0.866025403784429,0.));
#402=DIRECTION('',(0.,0.,1.));
#403=DIRECTION('',(6.10043102348454E-12,-1.,0.));
#404=DIRECTION('',(-1.,0.,0.));
#405=DIRECTION('',(0.,0.,1.));
#406=DIRECTION('',(-0.86602540377334,0.500000000019223,0.));
#407=DIRECTION('',(-0.500000000000017,-0.866025403784429,0.));
#408=DIRECTION('',(0.,0.,-1.));
#409=DIRECTION('',(-1.,0.,0.));
#410=DIRECTION('',(0.,0.,-1.));
#411=DIRECTION('',(1.,0.,0.));
#412=DIRECTION('',(0.,0.,1.));
#413=DIRECTION('',(-1.,0.,0.));
#414=DIRECTION('',(-0.105541947331403,0.060934671702382,0.992546151641332));
#415=DIRECTION('',(-0.859570181749864,0.496273075820679,-0.121869343405095));
#416=DIRECTION('',(0.500000000000015,0.86602540378443,-2.57074086984153E-16));
#417=DIRECTION('',(-9.14894302074525E-14,0.121869343405103,-0.992546151641327));
#418=DIRECTION('',(0.,0.,1.));
#419=DIRECTION('',(0.,-1.,-1.99148881026764E-16));
#420=DIRECTION('',(-9.14894302074525E-14,-0.121869343405103,0.992546151641327));
#421=DIRECTION('',(0.,-0.992546151641327,-0.121869343405103));
#422=DIRECTION('',(-1.,0.,0.));
#423=DIRECTION('',(-0.105541947331403,-0.0609346717024517,-0.992546151641328));
#424=DIRECTION('',(0.,0.,1.));
#425=DIRECTION('',(0.866025403784429,0.500000000000017,-1.99148881026764E-16));
#426=DIRECTION('',(0.859570181749864,0.496273075820679,-0.121869343405095));
#427=DIRECTION('',(0.500000000000015,-0.86602540378443,2.57074086984153E-16));
#428=DIRECTION('',(0.,0.,1.));
#429=DIRECTION('',(0.,0.,1.));
#430=DIRECTION('',(-1.,0.,0.));
#431=DIRECTION('',(0.,0.,1.));
#432=DIRECTION('',(0.,0.,-1.));
#433=DIRECTION('',(1.,0.,0.));
#434=DIRECTION('',(0.,0.,1.));
#435=DIRECTION('',(1.,0.,0.));
#436=DIRECTION('',(0.,0.,-1.));
#437=DIRECTION('',(1.,0.,0.));
#438=DIRECTION('',(0.,0.,-1.));
#439=DIRECTION('',(-1.,0.,0.));
#440=DIRECTION('',(0.,1.,0.));
#441=DIRECTION('',(0.8,0.,0.6));
#442=DIRECTION('',(0.,-1.,0.));
#443=DIRECTION('',(-0.8,0.,0.6));
#444=DIRECTION('',(0.,0.,-1.));
#445=DIRECTION('',(1.,0.,0.));
#446=DIRECTION('',(0.,0.,-1.));
#447=DIRECTION('',(1.,0.,0.));
#448=DIRECTION('',(0.,0.,-1.));
#449=DIRECTION('',(1.,0.,0.));
#450=DIRECTION('',(0.,0.,1.));
#451=DIRECTION('',(0.,0.,1.));
#452=DIRECTION('',(0.,0.,-1.));
#453=DIRECTION('',(1.,0.,0.));
#454=DIRECTION('',(0.,0.,-1.));
#455=DIRECTION('',(1.,0.,0.));
#456=CARTESIAN_POINT('',(0.,0.,0.));
#457=CARTESIAN_POINT('',(0.,0.,0.));
#458=CARTESIAN_POINT('',(-4.815101245042,-2.78,0.));
#459=CARTESIAN_POINT('',(0.3464101615143,4.959999999999,0.));
#460=CARTESIAN_POINT('',(4.122280922014,-2.78,0.));
#461=CARTESIAN_POINT('',(-4.468691083527,-2.179999999999,0.));
#462=CARTESIAN_POINT('',(0.,4.76,0.));
#463=CARTESIAN_POINT('',(4.122280922014,-2.38,0.));
#464=CARTESIAN_POINT('',(-4.122280922014,-2.38,0.));
#465=CARTESIAN_POINT('',(0.,0.,0.));
#466=CARTESIAN_POINT('',(-4.815101245042,-2.78,0.));
#467=CARTESIAN_POINT('',(0.,0.,0.));
#468=CARTESIAN_POINT('',(-4.468691083528,-2.18,0.));
#469=CARTESIAN_POINT('',(-4.468691083527,-2.179999999999,0.));
#470=CARTESIAN_POINT('',(-0.3464101615138,4.96,0.));
#471=CARTESIAN_POINT('',(-4.122280922014,-2.38,0.));
#472=CARTESIAN_POINT('',(-4.122280922014,-2.78,0.));
#473=CARTESIAN_POINT('',(4.122280922014,-2.78,0.));
#474=CARTESIAN_POINT('',(4.122280922014,-2.78,0.));
#475=CARTESIAN_POINT('',(4.122280922014,-2.38,0.));
#476=CARTESIAN_POINT('',(4.468691083527,-2.18,3.487100065527E-14));
#477=CARTESIAN_POINT('',(0.3464101615137,4.96,3.415992147076E-14));
#478=CARTESIAN_POINT('',(0.3464101615142,4.959999999999,0.));
#479=CARTESIAN_POINT('',(0.,4.76,0.));
#480=CARTESIAN_POINT('',(0.,0.,0.));
#481=CARTESIAN_POINT('',(1.65,0.,0.));
#482=CARTESIAN_POINT('',(-1.65,0.,0.));
#483=CARTESIAN_POINT('',(0.,0.,0.));
#484=CARTESIAN_POINT('',(0.,0.,0.));
#485=CARTESIAN_POINT('',(-0.3464101615138,4.96,0.));
#486=CARTESIAN_POINT('',(-0.09333393505051,4.813886372524,-2.38));
#487=CARTESIAN_POINT('',(0.09333393504996,4.813886372525,-2.38));
#488=CARTESIAN_POINT('',(0.09333393505047,4.813886372524,-2.38));
#489=CARTESIAN_POINT('',(0.,4.76,-2.38));
#490=CARTESIAN_POINT('',(0.,4.76,-1.19));
#491=CARTESIAN_POINT('',(4.215614857063,-2.326113627474,-2.38));
#492=CARTESIAN_POINT('',(4.215614857063,-2.326113627472,-2.38));
#493=CARTESIAN_POINT('',(4.122280922014,-2.38,-2.38));
#494=CARTESIAN_POINT('',(4.122280922014,-2.487772745051,-2.38));
#495=CARTESIAN_POINT('',(4.122280922014,-2.487772745051,-2.38));
#496=CARTESIAN_POINT('',(-4.122280922015,-2.487772745051,-2.38));
#497=CARTESIAN_POINT('',(-4.122280922014,-2.38,-2.38));
#498=CARTESIAN_POINT('',(-4.215614857064,-2.326113627474,-2.38));
#499=CARTESIAN_POINT('',(-0.0933339350502,4.813886372525,-2.38));
#500=CARTESIAN_POINT('',(0.,0.,-2.38));
#501=CARTESIAN_POINT('',(-1.25,0.,-2.38));
#502=CARTESIAN_POINT('',(1.25,0.,-2.38));
#503=CARTESIAN_POINT('',(0.,0.,-2.38));
#504=CARTESIAN_POINT('',(0.,0.,-2.38));
#505=CARTESIAN_POINT('',(-4.215614857064,-2.326113627474,-2.38));
#506=CARTESIAN_POINT('',(0.560002400096,6.529952609327,0.));
#507=CARTESIAN_POINT('',(-4.122280922014,-2.78,0.));
#508=CARTESIAN_POINT('',(-4.122280922014,-2.38,-1.19));
#509=CARTESIAN_POINT('',(4.122280922014,-2.487772745051,-2.38));
#510=CARTESIAN_POINT('',(-5.935106045233,-2.78,0.));
#511=CARTESIAN_POINT('',(4.468691083527,-2.18,3.487100065527E-14));
#512=CARTESIAN_POINT('',(4.122280922014,-2.38,-1.19));
#513=CARTESIAN_POINT('',(5.375103645137,-3.749952609327,0.));
#514=CARTESIAN_POINT('',(-1.25,0.,-1.6));
#515=CARTESIAN_POINT('',(-1.25,0.,-1.6));
#516=CARTESIAN_POINT('',(0.,0.,-1.6));
#517=CARTESIAN_POINT('',(1.25,0.,-1.6));
#518=CARTESIAN_POINT('',(1.25,0.,-1.6));
#519=CARTESIAN_POINT('',(0.,0.,0.119));
#520=CARTESIAN_POINT('',(0.,0.,-1.6));
#521=CARTESIAN_POINT('',(0.,0.,0.119));
#522=CARTESIAN_POINT('',(0.,0.,-0.4));
#523=CARTESIAN_POINT('',(-1.65,0.,-0.4));
#524=CARTESIAN_POINT('',(1.65,0.,-0.4));
#525=CARTESIAN_POINT('',(-3.25,0.,-1.6));
#526=CARTESIAN_POINT('',(3.25,0.,-1.6));
#527=CARTESIAN_POINT('',(0.,0.,-1.6));
#528=CARTESIAN_POINT('',(0.,0.,-0.4));
#529=CARTESIAN_POINT('',(0.,0.,-1.6));
#530=CARTESIAN_POINT('',(1.65,0.,0.));
#531=CARTESIAN_POINT('',(-1.65,0.,0.));
#532=CARTESIAN_POINT('',(0.,0.,0.119));
#533=CARTESIAN_POINT('',(0.,0.,0.119));
#534=MECHANICAL_DESIGN_GEOMETRIC_PRESENTATION_REPRESENTATION('',(#296,#297,
#298,#299,#300,#301,#302,#303,#304,#305,#306,#307),#535);
#535=(
GEOMETRIC_REPRESENTATION_CONTEXT(3)
GLOBAL_UNCERTAINTY_ASSIGNED_CONTEXT((#536))
GLOBAL_UNIT_ASSIGNED_CONTEXT((#542,#538,#537))
REPRESENTATION_CONTEXT('TC090204N','TOP_LEVEL_ASSEMBLY_PART')
);
#536=UNCERTAINTY_MEASURE_WITH_UNIT(LENGTH_MEASURE(2.E-5),#542,
'DISTANCE_ACCURACY_VALUE','Maximum Tolerance applied to model');
#537=(
NAMED_UNIT(*)
SI_UNIT($,.STERADIAN.)
SOLID_ANGLE_UNIT()
);
#538=(
CONVERSION_BASED_UNIT('DEGREE',#540)
NAMED_UNIT(#539)
PLANE_ANGLE_UNIT()
);
#539=DIMENSIONAL_EXPONENTS(0.,0.,0.,0.,0.,0.,0.);
#540=PLANE_ANGLE_MEASURE_WITH_UNIT(PLANE_ANGLE_MEASURE(0.0174532925),#541);
#541=(
NAMED_UNIT(*)
PLANE_ANGLE_UNIT()
SI_UNIT($,.RADIAN.)
);
#542=(
LENGTH_UNIT()
NAMED_UNIT(*)
SI_UNIT(.MILLI.,.METRE.)
);
ENDSEC;
END-ISO-10303-21;
