ISO-10303-21;
HEADER;
/* Generated by software containing ST-Developer
 * from STEP Tools, Inc. (www.steptools.com) 
 */
/* OPTION: using custom schema-name function */

FILE_DESCRIPTION(
/* description */ (''),
/* implementation_level */ '2;1');

FILE_NAME(
/* name */ 'SC09T304N.stp',
/* time_stamp */ '2021-11-11T11:52:01+09:00',
/* author */ (''),
/* organization */ (''),
/* preprocessor_version */ 'ST-DEVELOPER v16',
/* originating_system */ 'SIEMENS PLM Software NX 10.0',
/* authorisation */ '');

FILE_SCHEMA (('AUTOMOTIVE_DESIGN { 1 0 10303 214 3 1 1 1 }'));
ENDSEC;

DATA;
#10=CONSTRUCTIVE_GEOMETRY_REPRESENTATION_RELATIONSHIP(
'supplemental geometry','',#26,#11);
#11=CONSTRUCTIVE_GEOMETRY_REPRESENTATION('supplemental geometry',(#413,
#414,#415),#659);
#12=GEOMETRICALLY_BOUNDED_WIREFRAME_SHAPE_REPRESENTATION(
'SC09T304N-None',(#27),#659);
#13=SHAPE_REPRESENTATION_RELATIONSHIP('None',
'relationship between SC09T304N-None and SC09T304N-None',#26,#15);
#14=SHAPE_REPRESENTATION_RELATIONSHIP('None',
'relationship between SC09T304N-None and SC09T304N-None',#26,#12);
#15=ADVANCED_BREP_SHAPE_REPRESENTATION('SC09T304N-None',(#33),#659);
#16=SHAPE_DEFINITION_REPRESENTATION(#17,#26);
#17=PRODUCT_DEFINITION_SHAPE('','',#18);
#18=PRODUCT_DEFINITION('part definition','',#20,#19);
#19=PRODUCT_DEFINITION_CONTEXT('part definition',#25,'design');
#20=PRODUCT_DEFINITION_FORMATION_WITH_SPECIFIED_SOURCE(' ',' ',#22,
 .NOT_KNOWN.);
#21=PRODUCT_RELATED_PRODUCT_CATEGORY('part','',(#22));
#22=PRODUCT('SC09T304R','SC09T304R','NOT SPECIFIED',(#23));
#23=PRODUCT_CONTEXT('',#25,'mechanical');
#24=APPLICATION_PROTOCOL_DEFINITION('international standard',
'automotive_design',2010,#25);
#25=APPLICATION_CONTEXT(
'core data for automotive mechanical design processes');
#26=SHAPE_REPRESENTATION('SC09T304N-None',(#406),#659);
#27=GEOMETRIC_CURVE_SET('None',(#561,#562,#299,#300,#301,#302,#303,#304,
#305,#306,#307,#308));
#28=SURFACE_STYLE_USAGE(.BOTH.,#29);
#29=SURFACE_SIDE_STYLE('',(#30));
#30=SURFACE_STYLE_FILL_AREA(#31);
#31=FILL_AREA_STYLE('',(#32));
#32=FILL_AREA_STYLE_COLOUR('',#250);
#33=MANIFOLD_SOLID_BREP('',#34);
#34=CLOSED_SHELL('',(#59,#60,#61,#62,#63,#64,#65,#66,#67,#68,#69,#70,#71,
#72,#73,#74));
#35=TOROIDAL_SURFACE('',#443,5.2,3.);
#36=TOROIDAL_SURFACE('',#445,5.2,3.);
#37=CYLINDRICAL_SURFACE('',#437,2.2);
#38=CYLINDRICAL_SURFACE('',#439,2.2);
#39=CYLINDRICAL_SURFACE('',#446,3.);
#40=CYLINDRICAL_SURFACE('',#447,3.);
#41=CONICAL_SURFACE('',#425,0.204,7.);
#42=CONICAL_SURFACE('',#433,0.204,7.);
#43=CONICAL_SURFACE('',#434,0.204,7.);
#44=CONICAL_SURFACE('',#435,0.204,7.);
#45=FACE_OUTER_BOUND('',#87,.T.);
#46=FACE_OUTER_BOUND('',#88,.T.);
#47=FACE_OUTER_BOUND('',#91,.T.);
#48=FACE_OUTER_BOUND('',#92,.T.);
#49=FACE_OUTER_BOUND('',#93,.T.);
#50=FACE_OUTER_BOUND('',#94,.T.);
#51=FACE_OUTER_BOUND('',#95,.T.);
#52=FACE_OUTER_BOUND('',#96,.T.);
#53=FACE_OUTER_BOUND('',#97,.T.);
#54=FACE_OUTER_BOUND('',#98,.T.);
#55=FACE_OUTER_BOUND('',#99,.T.);
#56=FACE_OUTER_BOUND('',#100,.T.);
#57=FACE_OUTER_BOUND('',#101,.T.);
#58=FACE_OUTER_BOUND('',#102,.T.);
#59=ADVANCED_FACE('',(#81,#82),#75,.T.);
#60=ADVANCED_FACE('',(#45),#41,.T.);
#61=ADVANCED_FACE('',(#46),#76,.T.);
#62=ADVANCED_FACE('',(#83,#84),#77,.F.);
#63=ADVANCED_FACE('',(#47),#78,.T.);
#64=ADVANCED_FACE('',(#48),#79,.T.);
#65=ADVANCED_FACE('',(#49),#80,.T.);
#66=ADVANCED_FACE('',(#50),#42,.T.);
#67=ADVANCED_FACE('',(#51),#43,.T.);
#68=ADVANCED_FACE('',(#52),#44,.T.);
#69=ADVANCED_FACE('',(#53),#37,.F.);
#70=ADVANCED_FACE('',(#54),#38,.F.);
#71=ADVANCED_FACE('',(#55),#35,.T.);
#72=ADVANCED_FACE('',(#56),#36,.T.);
#73=ADVANCED_FACE('',(#57),#39,.F.);
#74=ADVANCED_FACE('',(#58),#40,.F.);
#75=PLANE('',#424);
#76=PLANE('',#426);
#77=PLANE('',#429);
#78=PLANE('',#430);
#79=PLANE('',#431);
#80=PLANE('',#432);
#81=FACE_BOUND('',#85,.T.);
#82=FACE_BOUND('',#86,.T.);
#83=FACE_BOUND('',#89,.T.);
#84=FACE_BOUND('',#90,.T.);
#85=EDGE_LOOP('',(#103,#104,#105,#106,#107,#108,#109,#110,#111,#112));
#86=EDGE_LOOP('',(#113,#114));
#87=EDGE_LOOP('',(#115,#116,#117,#118));
#88=EDGE_LOOP('',(#119,#120,#121,#122,#123,#124));
#89=EDGE_LOOP('',(#125,#126,#127,#128));
#90=EDGE_LOOP('',(#129,#130));
#91=EDGE_LOOP('',(#131,#132,#133,#134,#135,#136));
#92=EDGE_LOOP('',(#137,#138,#139,#140,#141,#142));
#93=EDGE_LOOP('',(#143,#144,#145,#146,#147,#148));
#94=EDGE_LOOP('',(#149,#150,#151));
#95=EDGE_LOOP('',(#152,#153,#154,#155));
#96=EDGE_LOOP('',(#156,#157,#158));
#97=EDGE_LOOP('',(#159,#160,#161,#162));
#98=EDGE_LOOP('',(#163,#164,#165,#166));
#99=EDGE_LOOP('',(#167,#168,#169,#170));
#100=EDGE_LOOP('',(#171,#172,#173,#174));
#101=EDGE_LOOP('',(#175,#176,#177,#178));
#102=EDGE_LOOP('',(#179,#180,#181,#182));
#103=ORIENTED_EDGE('',*,*,#209,.F.);
#104=ORIENTED_EDGE('',*,*,#210,.F.);
#105=ORIENTED_EDGE('',*,*,#211,.F.);
#106=ORIENTED_EDGE('',*,*,#212,.F.);
#107=ORIENTED_EDGE('',*,*,#213,.F.);
#108=ORIENTED_EDGE('',*,*,#214,.F.);
#109=ORIENTED_EDGE('',*,*,#215,.F.);
#110=ORIENTED_EDGE('',*,*,#216,.F.);
#111=ORIENTED_EDGE('',*,*,#217,.F.);
#112=ORIENTED_EDGE('',*,*,#218,.F.);
#113=ORIENTED_EDGE('',*,*,#219,.F.);
#114=ORIENTED_EDGE('',*,*,#220,.F.);
#115=ORIENTED_EDGE('',*,*,#221,.F.);
#116=ORIENTED_EDGE('',*,*,#218,.T.);
#117=ORIENTED_EDGE('',*,*,#217,.T.);
#118=ORIENTED_EDGE('',*,*,#222,.F.);
#119=ORIENTED_EDGE('',*,*,#223,.F.);
#120=ORIENTED_EDGE('',*,*,#222,.T.);
#121=ORIENTED_EDGE('',*,*,#216,.T.);
#122=ORIENTED_EDGE('',*,*,#224,.T.);
#123=ORIENTED_EDGE('',*,*,#225,.T.);
#124=ORIENTED_EDGE('',*,*,#226,.T.);
#125=ORIENTED_EDGE('',*,*,#227,.F.);
#126=ORIENTED_EDGE('',*,*,#228,.F.);
#127=ORIENTED_EDGE('',*,*,#226,.F.);
#128=ORIENTED_EDGE('',*,*,#229,.F.);
#129=ORIENTED_EDGE('',*,*,#230,.F.);
#130=ORIENTED_EDGE('',*,*,#231,.F.);
#131=ORIENTED_EDGE('',*,*,#225,.F.);
#132=ORIENTED_EDGE('',*,*,#232,.T.);
#133=ORIENTED_EDGE('',*,*,#214,.T.);
#134=ORIENTED_EDGE('',*,*,#233,.T.);
#135=ORIENTED_EDGE('',*,*,#234,.T.);
#136=ORIENTED_EDGE('',*,*,#229,.T.);
#137=ORIENTED_EDGE('',*,*,#234,.F.);
#138=ORIENTED_EDGE('',*,*,#235,.T.);
#139=ORIENTED_EDGE('',*,*,#211,.T.);
#140=ORIENTED_EDGE('',*,*,#236,.T.);
#141=ORIENTED_EDGE('',*,*,#237,.T.);
#142=ORIENTED_EDGE('',*,*,#227,.T.);
#143=ORIENTED_EDGE('',*,*,#237,.F.);
#144=ORIENTED_EDGE('',*,*,#238,.T.);
#145=ORIENTED_EDGE('',*,*,#209,.T.);
#146=ORIENTED_EDGE('',*,*,#221,.T.);
#147=ORIENTED_EDGE('',*,*,#223,.T.);
#148=ORIENTED_EDGE('',*,*,#228,.T.);
#149=ORIENTED_EDGE('',*,*,#236,.F.);
#150=ORIENTED_EDGE('',*,*,#210,.T.);
#151=ORIENTED_EDGE('',*,*,#238,.F.);
#152=ORIENTED_EDGE('',*,*,#233,.F.);
#153=ORIENTED_EDGE('',*,*,#213,.T.);
#154=ORIENTED_EDGE('',*,*,#212,.T.);
#155=ORIENTED_EDGE('',*,*,#235,.F.);
#156=ORIENTED_EDGE('',*,*,#224,.F.);
#157=ORIENTED_EDGE('',*,*,#215,.T.);
#158=ORIENTED_EDGE('',*,*,#232,.F.);
#159=ORIENTED_EDGE('',*,*,#239,.F.);
#160=ORIENTED_EDGE('',*,*,#240,.T.);
#161=ORIENTED_EDGE('',*,*,#241,.T.);
#162=ORIENTED_EDGE('',*,*,#231,.T.);
#163=ORIENTED_EDGE('',*,*,#241,.F.);
#164=ORIENTED_EDGE('',*,*,#242,.T.);
#165=ORIENTED_EDGE('',*,*,#239,.T.);
#166=ORIENTED_EDGE('',*,*,#230,.T.);
#167=ORIENTED_EDGE('',*,*,#243,.F.);
#168=ORIENTED_EDGE('',*,*,#244,.F.);
#169=ORIENTED_EDGE('',*,*,#242,.F.);
#170=ORIENTED_EDGE('',*,*,#245,.T.);
#171=ORIENTED_EDGE('',*,*,#240,.F.);
#172=ORIENTED_EDGE('',*,*,#244,.T.);
#173=ORIENTED_EDGE('',*,*,#246,.F.);
#174=ORIENTED_EDGE('',*,*,#245,.F.);
#175=ORIENTED_EDGE('',*,*,#247,.T.);
#176=ORIENTED_EDGE('',*,*,#246,.T.);
#177=ORIENTED_EDGE('',*,*,#248,.F.);
#178=ORIENTED_EDGE('',*,*,#220,.T.);
#179=ORIENTED_EDGE('',*,*,#248,.T.);
#180=ORIENTED_EDGE('',*,*,#243,.T.);
#181=ORIENTED_EDGE('',*,*,#247,.F.);
#182=ORIENTED_EDGE('',*,*,#219,.T.);
#183=VERTEX_POINT('',#577);
#184=VERTEX_POINT('',#578);
#185=VERTEX_POINT('',#580);
#186=VERTEX_POINT('',#582);
#187=VERTEX_POINT('',#584);
#188=VERTEX_POINT('',#586);
#189=VERTEX_POINT('',#588);
#190=VERTEX_POINT('',#590);
#191=VERTEX_POINT('',#592);
#192=VERTEX_POINT('',#594);
#193=VERTEX_POINT('',#597);
#194=VERTEX_POINT('',#598);
#195=VERTEX_POINT('',#602);
#196=VERTEX_POINT('',#606);
#197=VERTEX_POINT('',#608);
#198=VERTEX_POINT('',#610);
#199=VERTEX_POINT('',#614);
#200=VERTEX_POINT('',#615);
#201=VERTEX_POINT('',#619);
#202=VERTEX_POINT('',#620);
#203=VERTEX_POINT('',#625);
#204=VERTEX_POINT('',#630);
#205=VERTEX_POINT('',#639);
#206=VERTEX_POINT('',#641);
#207=VERTEX_POINT('',#647);
#208=VERTEX_POINT('',#648);
#209=EDGE_CURVE('',#183,#184,#313,.T.);
#210=EDGE_CURVE('',#185,#183,#257,.T.);
#211=EDGE_CURVE('',#186,#185,#314,.T.);
#212=EDGE_CURVE('',#187,#186,#258,.T.);
#213=EDGE_CURVE('',#188,#187,#259,.T.);
#214=EDGE_CURVE('',#189,#188,#315,.T.);
#215=EDGE_CURVE('',#190,#189,#260,.T.);
#216=EDGE_CURVE('',#191,#190,#316,.T.);
#217=EDGE_CURVE('',#192,#191,#261,.T.);
#218=EDGE_CURVE('',#184,#192,#262,.T.);
#219=EDGE_CURVE('',#193,#194,#263,.T.);
#220=EDGE_CURVE('',#194,#193,#264,.T.);
#221=EDGE_CURVE('',#184,#195,#317,.T.);
#222=EDGE_CURVE('',#195,#191,#318,.T.);
#223=EDGE_CURVE('',#195,#196,#319,.T.);
#224=EDGE_CURVE('',#190,#197,#320,.T.);
#225=EDGE_CURVE('',#197,#198,#321,.T.);
#226=EDGE_CURVE('',#198,#196,#322,.T.);
#227=EDGE_CURVE('',#199,#200,#323,.T.);
#228=EDGE_CURVE('',#196,#199,#324,.T.);
#229=EDGE_CURVE('',#200,#198,#325,.T.);
#230=EDGE_CURVE('',#201,#202,#265,.T.);
#231=EDGE_CURVE('',#202,#201,#266,.T.);
#232=EDGE_CURVE('',#197,#189,#326,.T.);
#233=EDGE_CURVE('',#188,#203,#327,.T.);
#234=EDGE_CURVE('',#203,#200,#328,.T.);
#235=EDGE_CURVE('',#203,#186,#329,.T.);
#236=EDGE_CURVE('',#185,#204,#330,.T.);
#237=EDGE_CURVE('',#204,#199,#331,.T.);
#238=EDGE_CURVE('',#204,#183,#332,.T.);
#239=EDGE_CURVE('',#205,#201,#333,.T.);
#240=EDGE_CURVE('',#205,#206,#267,.T.);
#241=EDGE_CURVE('',#206,#202,#334,.T.);
#242=EDGE_CURVE('',#206,#205,#268,.T.);
#243=EDGE_CURVE('',#207,#208,#269,.T.);
#244=EDGE_CURVE('',#205,#207,#270,.T.);
#245=EDGE_CURVE('',#206,#208,#271,.T.);
#246=EDGE_CURVE('',#208,#207,#272,.T.);
#247=EDGE_CURVE('',#193,#208,#335,.T.);
#248=EDGE_CURVE('',#194,#207,#336,.T.);
#249=COLOUR_RGB('Strong Stone',0.576470588235294,0.54508278019379,0.392156862745098);
#250=COLOUR_RGB('cutting part',0.8,0.8,0.8);
#251=CIRCLE('',#407,0.4);
#252=CIRCLE('',#408,0.4);
#253=CIRCLE('',#409,0.4);
#254=CIRCLE('',#410,0.4);
#255=CIRCLE('',#411,0.4);
#256=CIRCLE('',#412,0.4);
#257=CIRCLE('',#416,0.4);
#258=CIRCLE('',#417,0.4);
#259=CIRCLE('',#418,0.4);
#260=CIRCLE('',#419,0.4);
#261=CIRCLE('',#420,0.4);
#262=CIRCLE('',#421,0.4);
#263=CIRCLE('',#422,3.);
#264=CIRCLE('',#423,3.);
#265=CIRCLE('',#427,2.2);
#266=CIRCLE('',#428,2.2);
#267=CIRCLE('',#436,2.2);
#268=CIRCLE('',#438,2.2);
#269=CIRCLE('',#440,3.);
#270=CIRCLE('',#441,3.);
#271=CIRCLE('',#442,3.);
#272=CIRCLE('',#444,3.);
#273=CURVE_STYLE('',#286,POSITIVE_LENGTH_MEASURE(0.18),#405);
#274=CURVE_STYLE('',#287,POSITIVE_LENGTH_MEASURE(0.18),#405);
#275=CURVE_STYLE('',#288,POSITIVE_LENGTH_MEASURE(0.18),#405);
#276=CURVE_STYLE('',#289,POSITIVE_LENGTH_MEASURE(0.18),#405);
#277=CURVE_STYLE('',#290,POSITIVE_LENGTH_MEASURE(0.18),#405);
#278=CURVE_STYLE('',#291,POSITIVE_LENGTH_MEASURE(0.18),#405);
#279=CURVE_STYLE('',#292,POSITIVE_LENGTH_MEASURE(0.18),#405);
#280=CURVE_STYLE('',#293,POSITIVE_LENGTH_MEASURE(0.18),#405);
#281=CURVE_STYLE('',#294,POSITIVE_LENGTH_MEASURE(0.18),#405);
#282=CURVE_STYLE('',#295,POSITIVE_LENGTH_MEASURE(0.18),#405);
#283=CURVE_STYLE('',#296,POSITIVE_LENGTH_MEASURE(0.13),#404);
#284=CURVE_STYLE('',#297,POSITIVE_LENGTH_MEASURE(0.13),#404);
#285=CURVE_STYLE('',#298,POSITIVE_LENGTH_MEASURE(0.13),#249);
#286=DRAUGHTING_PRE_DEFINED_CURVE_FONT('continuous');
#287=DRAUGHTING_PRE_DEFINED_CURVE_FONT('continuous');
#288=DRAUGHTING_PRE_DEFINED_CURVE_FONT('continuous');
#289=DRAUGHTING_PRE_DEFINED_CURVE_FONT('continuous');
#290=DRAUGHTING_PRE_DEFINED_CURVE_FONT('continuous');
#291=DRAUGHTING_PRE_DEFINED_CURVE_FONT('continuous');
#292=DRAUGHTING_PRE_DEFINED_CURVE_FONT('continuous');
#293=DRAUGHTING_PRE_DEFINED_CURVE_FONT('continuous');
#294=DRAUGHTING_PRE_DEFINED_CURVE_FONT('continuous');
#295=DRAUGHTING_PRE_DEFINED_CURVE_FONT('continuous');
#296=DRAUGHTING_PRE_DEFINED_CURVE_FONT('continuous');
#297=DRAUGHTING_PRE_DEFINED_CURVE_FONT('continuous');
#298=DRAUGHTING_PRE_DEFINED_CURVE_FONT('continuous');
#299=TRIMMED_CURVE('',#309,(PARAMETER_VALUE(0.)),(PARAMETER_VALUE(1.)),
 .T.,.PARAMETER.);
#300=TRIMMED_CURVE('',#310,(PARAMETER_VALUE(0.)),(PARAMETER_VALUE(1.)),
 .T.,.PARAMETER.);
#301=TRIMMED_CURVE('',#311,(PARAMETER_VALUE(0.)),(PARAMETER_VALUE(1.)),
 .T.,.PARAMETER.);
#302=TRIMMED_CURVE('',#312,(PARAMETER_VALUE(0.)),(PARAMETER_VALUE(1.)),
 .T.,.PARAMETER.);
#303=TRIMMED_CURVE('',#251,(PARAMETER_VALUE(0.)),(PARAMETER_VALUE(45.)),
 .T.,.PARAMETER.);
#304=TRIMMED_CURVE('',#252,(PARAMETER_VALUE(0.)),(PARAMETER_VALUE(45.)),
 .T.,.PARAMETER.);
#305=TRIMMED_CURVE('',#253,(PARAMETER_VALUE(0.)),(PARAMETER_VALUE(90.)),
 .T.,.PARAMETER.);
#306=TRIMMED_CURVE('',#254,(PARAMETER_VALUE(0.)),(PARAMETER_VALUE(45.)),
 .T.,.PARAMETER.);
#307=TRIMMED_CURVE('',#255,(PARAMETER_VALUE(0.)),(PARAMETER_VALUE(45.)),
 .T.,.PARAMETER.);
#308=TRIMMED_CURVE('',#256,(PARAMETER_VALUE(0.)),(PARAMETER_VALUE(90.)),
 .T.,.PARAMETER.);
#309=LINE('',#563,#337);
#310=LINE('',#564,#338);
#311=LINE('',#565,#339);
#312=LINE('',#566,#340);
#313=LINE('',#576,#341);
#314=LINE('',#581,#342);
#315=LINE('',#587,#343);
#316=LINE('',#591,#344);
#317=LINE('',#601,#345);
#318=LINE('',#603,#346);
#319=LINE('',#605,#347);
#320=LINE('',#607,#348);
#321=LINE('',#609,#349);
#322=LINE('',#611,#350);
#323=LINE('',#613,#351);
#324=LINE('',#616,#352);
#325=LINE('',#617,#353);
#326=LINE('',#623,#354);
#327=LINE('',#624,#355);
#328=LINE('',#626,#356);
#329=LINE('',#628,#357);
#330=LINE('',#629,#358);
#331=LINE('',#631,#359);
#332=LINE('',#633,#360);
#333=LINE('',#638,#361);
#334=LINE('',#642,#362);
#335=LINE('',#654,#363);
#336=LINE('',#655,#364);
#337=VECTOR('',#450,8.725);
#338=VECTOR('',#451,8.725);
#339=VECTOR('',#452,8.725);
#340=VECTOR('',#453,8.725);
#341=VECTOR('',#472,1.);
#342=VECTOR('',#475,1.);
#343=VECTOR('',#480,1.);
#344=VECTOR('',#483,1.);
#345=VECTOR('',#494,1.);
#346=VECTOR('',#495,1.);
#347=VECTOR('',#498,1.);
#348=VECTOR('',#499,1.);
#349=VECTOR('',#500,1.);
#350=VECTOR('',#501,1.);
#351=VECTOR('',#504,1.);
#352=VECTOR('',#505,1.);
#353=VECTOR('',#506,1.);
#354=VECTOR('',#513,1.);
#355=VECTOR('',#514,1.);
#356=VECTOR('',#515,1.);
#357=VECTOR('',#518,1.);
#358=VECTOR('',#519,1.);
#359=VECTOR('',#520,1.);
#360=VECTOR('',#523,1.);
#361=VECTOR('',#532,1.);
#362=VECTOR('',#535,1.);
#363=VECTOR('',#554,1.);
#364=VECTOR('',#555,1.);
#365=PRESENTATION_LAYER_ASSIGNMENT('5','Layer 5',(#561,#413));
#366=PRESENTATION_LAYER_ASSIGNMENT('1','Layer 1',(#562,#414,#415,#33));
#367=PRESENTATION_LAYER_ASSIGNMENT('2','Layer 2',(#299,#300,#301,#302,#303,
#304,#305,#306,#307,#308));
#368=STYLED_ITEM('',(#384),#561);
#369=STYLED_ITEM('',(#385),#562);
#370=STYLED_ITEM('',(#386),#299);
#371=STYLED_ITEM('',(#387),#300);
#372=STYLED_ITEM('',(#388),#301);
#373=STYLED_ITEM('',(#389),#302);
#374=STYLED_ITEM('',(#390),#303);
#375=STYLED_ITEM('',(#391),#304);
#376=STYLED_ITEM('',(#392),#305);
#377=STYLED_ITEM('',(#393),#306);
#378=STYLED_ITEM('',(#394),#307);
#379=STYLED_ITEM('',(#395),#308);
#380=STYLED_ITEM('',(#396),#413);
#381=STYLED_ITEM('',(#397),#414);
#382=STYLED_ITEM('',(#398),#415);
#383=STYLED_ITEM('',(#399),#33);
#384=PRESENTATION_STYLE_ASSIGNMENT((#400));
#385=PRESENTATION_STYLE_ASSIGNMENT((#401));
#386=PRESENTATION_STYLE_ASSIGNMENT((#273));
#387=PRESENTATION_STYLE_ASSIGNMENT((#274));
#388=PRESENTATION_STYLE_ASSIGNMENT((#275));
#389=PRESENTATION_STYLE_ASSIGNMENT((#276));
#390=PRESENTATION_STYLE_ASSIGNMENT((#277));
#391=PRESENTATION_STYLE_ASSIGNMENT((#278));
#392=PRESENTATION_STYLE_ASSIGNMENT((#279));
#393=PRESENTATION_STYLE_ASSIGNMENT((#280));
#394=PRESENTATION_STYLE_ASSIGNMENT((#281));
#395=PRESENTATION_STYLE_ASSIGNMENT((#282));
#396=PRESENTATION_STYLE_ASSIGNMENT((#283));
#397=PRESENTATION_STYLE_ASSIGNMENT((#284));
#398=PRESENTATION_STYLE_ASSIGNMENT((#285));
#399=PRESENTATION_STYLE_ASSIGNMENT((#28));
#400=POINT_STYLE('',#402,POSITIVE_LENGTH_MEASURE(3.),#404);
#401=POINT_STYLE('',#403,POSITIVE_LENGTH_MEASURE(3.),#404);
#402=PRE_DEFINED_POINT_MARKER_SYMBOL('plus');
#403=PRE_DEFINED_POINT_MARKER_SYMBOL('plus');
#404=DRAUGHTING_PRE_DEFINED_COLOUR('yellow');
#405=DRAUGHTING_PRE_DEFINED_COLOUR('blue');
#406=AXIS2_PLACEMENT_3D('',#560,#448,#449);
#407=AXIS2_PLACEMENT_3D('',#567,#454,#455);
#408=AXIS2_PLACEMENT_3D('',#568,#456,#457);
#409=AXIS2_PLACEMENT_3D('',#569,#458,#459);
#410=AXIS2_PLACEMENT_3D('',#570,#460,#461);
#411=AXIS2_PLACEMENT_3D('',#571,#462,#463);
#412=AXIS2_PLACEMENT_3D('',#572,#464,#465);
#413=AXIS2_PLACEMENT_3D('MCS',#573,#466,#467);
#414=AXIS2_PLACEMENT_3D('PCS',#574,#468,#469);
#415=AXIS2_PLACEMENT_3D('',#575,#470,#471);
#416=AXIS2_PLACEMENT_3D('',#579,#473,#474);
#417=AXIS2_PLACEMENT_3D('',#583,#476,#477);
#418=AXIS2_PLACEMENT_3D('',#585,#478,#479);
#419=AXIS2_PLACEMENT_3D('',#589,#481,#482);
#420=AXIS2_PLACEMENT_3D('',#593,#484,#485);
#421=AXIS2_PLACEMENT_3D('',#595,#486,#487);
#422=AXIS2_PLACEMENT_3D('',#596,#488,#489);
#423=AXIS2_PLACEMENT_3D('',#599,#490,#491);
#424=AXIS2_PLACEMENT_3D('',#600,#492,#493);
#425=AXIS2_PLACEMENT_3D('',#604,#496,#497);
#426=AXIS2_PLACEMENT_3D('',#612,#502,#503);
#427=AXIS2_PLACEMENT_3D('',#618,#507,#508);
#428=AXIS2_PLACEMENT_3D('',#621,#509,#510);
#429=AXIS2_PLACEMENT_3D('',#622,#511,#512);
#430=AXIS2_PLACEMENT_3D('',#627,#516,#517);
#431=AXIS2_PLACEMENT_3D('',#632,#521,#522);
#432=AXIS2_PLACEMENT_3D('',#634,#524,#525);
#433=AXIS2_PLACEMENT_3D('',#635,#526,#527);
#434=AXIS2_PLACEMENT_3D('',#636,#528,#529);
#435=AXIS2_PLACEMENT_3D('',#637,#530,#531);
#436=AXIS2_PLACEMENT_3D('',#640,#533,#534);
#437=AXIS2_PLACEMENT_3D('',#643,#536,#537);
#438=AXIS2_PLACEMENT_3D('',#644,#538,#539);
#439=AXIS2_PLACEMENT_3D('',#645,#540,#541);
#440=AXIS2_PLACEMENT_3D('',#646,#542,#543);
#441=AXIS2_PLACEMENT_3D('',#649,#544,#545);
#442=AXIS2_PLACEMENT_3D('',#650,#546,#547);
#443=AXIS2_PLACEMENT_3D('',#651,#548,#549);
#444=AXIS2_PLACEMENT_3D('',#652,#550,#551);
#445=AXIS2_PLACEMENT_3D('',#653,#552,#553);
#446=AXIS2_PLACEMENT_3D('',#656,#556,#557);
#447=AXIS2_PLACEMENT_3D('',#657,#558,#559);
#448=DIRECTION('',(0.,0.,1.));
#449=DIRECTION('',(1.,0.,0.));
#450=DIRECTION('',(-1.,0.,0.));
#451=DIRECTION('',(0.,1.,0.));
#452=DIRECTION('',(1.,0.,0.));
#453=DIRECTION('',(0.,-1.,0.));
#454=DIRECTION('',(0.,0.,-1.));
#455=DIRECTION('',(0.,-1.,0.));
#456=DIRECTION('',(0.,0.,-1.));
#457=DIRECTION('',(-0.707106781186548,-0.707106781186548,0.));
#458=DIRECTION('',(0.,0.,-1.));
#459=DIRECTION('',(-1.,0.,0.));
#460=DIRECTION('',(0.,0.,-1.));
#461=DIRECTION('',(0.,1.,0.));
#462=DIRECTION('',(0.,0.,-1.));
#463=DIRECTION('',(0.707106781186548,0.707106781186548,0.));
#464=DIRECTION('',(0.,0.,-1.));
#465=DIRECTION('',(1.,0.,0.));
#466=DIRECTION('',(0.,0.,1.));
#467=DIRECTION('',(1.,0.,0.));
#468=DIRECTION('',(0.,0.,1.));
#469=DIRECTION('',(1.,0.,0.));
#470=DIRECTION('',(0.,0.,1.));
#471=DIRECTION('',(1.,0.,0.));
#472=DIRECTION('',(1.,0.,0.));
#473=DIRECTION('',(0.,0.,-1.));
#474=DIRECTION('',(-1.,0.,0.));
#475=DIRECTION('',(0.,1.,0.));
#476=DIRECTION('',(0.,0.,-1.));
#477=DIRECTION('',(-0.707106781186548,-0.707106781186548,0.));
#478=DIRECTION('',(0.,0.,-1.));
#479=DIRECTION('',(0.,-1.,0.));
#480=DIRECTION('',(-1.,0.,0.));
#481=DIRECTION('',(0.,0.,-1.));
#482=DIRECTION('',(1.,0.,0.));
#483=DIRECTION('',(0.,-1.,0.));
#484=DIRECTION('',(0.,0.,-1.));
#485=DIRECTION('',(0.707106781186548,0.707106781186548,0.));
#486=DIRECTION('',(0.,0.,-1.));
#487=DIRECTION('',(0.,1.,0.));
#488=DIRECTION('',(0.,0.,1.));
#489=DIRECTION('',(-0.707106781186548,0.707106781186548,0.));
#490=DIRECTION('',(0.,0.,1.));
#491=DIRECTION('',(0.707106781186548,-0.707106781186548,0.));
#492=DIRECTION('',(0.,0.,1.));
#493=DIRECTION('',(-0.707106781186547,-0.707106781186547,0.));
#494=DIRECTION('',(5.89917378553809E-14,-0.121869343405202,-0.992546151641315));
#495=DIRECTION('',(0.121869343405202,-5.89917378553809E-14,0.992546151641315));
#496=DIRECTION('',(0.,0.,1.));
#497=DIRECTION('',(-0.707106781186547,-0.707106781186547,2.16860602704341E-16));
#498=DIRECTION('',(-0.120974291151604,-0.120974291151604,-0.985256536015232));
#499=DIRECTION('',(-0.121869343405202,-5.89917378553809E-14,-0.992546151641315));
#500=DIRECTION('',(-0.120974291151604,0.120974291151604,-0.985256536015232));
#501=DIRECTION('',(0.,1.,0.));
#502=DIRECTION('',(0.992546151641327,0.,-0.121869343405103));
#503=DIRECTION('',(0.,-1.,0.));
#504=DIRECTION('',(0.,-1.,0.));
#505=DIRECTION('',(-1.,0.,0.));
#506=DIRECTION('',(1.,0.,0.));
#507=DIRECTION('',(0.,0.,-1.));
#508=DIRECTION('',(0.707106781186548,-0.707106781186548,0.));
#509=DIRECTION('',(0.,0.,-1.));
#510=DIRECTION('',(-0.707106781186548,0.707106781186548,0.));
#511=DIRECTION('',(0.,0.,1.));
#512=DIRECTION('',(-0.707106781186547,-0.707106781186547,0.));
#513=DIRECTION('',(-5.89917378553809E-14,-0.121869343405202,0.992546151641315));
#514=DIRECTION('',(-5.89917378553809E-14,0.121869343405202,-0.992546151641315));
#515=DIRECTION('',(0.120974291151604,0.120974291151604,-0.985256536015232));
#516=DIRECTION('',(0.,-0.992546151641327,-0.121869343405103));
#517=DIRECTION('',(-1.,0.,0.));
#518=DIRECTION('',(-0.121869343405202,5.89917378553809E-14,0.992546151641315));
#519=DIRECTION('',(0.121869343405202,5.89917378553809E-14,-0.992546151641315));
#520=DIRECTION('',(0.120974291151604,-0.120974291151604,-0.985256536015232));
#521=DIRECTION('',(-0.992546151641327,0.,-0.121869343405103));
#522=DIRECTION('',(0.,1.,0.));
#523=DIRECTION('',(5.89917378553809E-14,0.121869343405202,0.992546151641315));
#524=DIRECTION('',(0.,0.992546151641327,-0.121869343405103));
#525=DIRECTION('',(1.,0.,0.));
#526=DIRECTION('',(0.,0.,1.));
#527=DIRECTION('',(-0.707106781186547,-0.707106781186547,2.16860602704341E-16));
#528=DIRECTION('',(0.,0.,1.));
#529=DIRECTION('',(-0.707106781186547,-0.707106781186547,2.16860602704341E-16));
#530=DIRECTION('',(0.,0.,1.));
#531=DIRECTION('',(-0.707106781186547,-0.707106781186547,2.16860602704341E-16));
#532=DIRECTION('',(0.,0.,-1.));
#533=DIRECTION('',(0.,0.,1.));
#534=DIRECTION('',(0.707106781186548,-0.707106781186548,0.));
#535=DIRECTION('',(0.,0.,-1.));
#536=DIRECTION('',(0.,0.,-1.));
#537=DIRECTION('',(-0.707106781186547,0.707106781186547,0.));
#538=DIRECTION('',(0.,0.,1.));
#539=DIRECTION('',(-0.707106781186548,0.707106781186548,0.));
#540=DIRECTION('',(0.,0.,-1.));
#541=DIRECTION('',(-0.707106781186547,0.707106781186547,0.));
#542=DIRECTION('',(0.,0.,-1.));
#543=DIRECTION('',(0.707106781186548,-0.707106781186548,0.));
#544=DIRECTION('',(0.707106781186548,0.707106781186548,0.));
#545=DIRECTION('',(-0.518544972870132,0.518544972870132,0.679869268479042));
#546=DIRECTION('',(-0.707106781186548,-0.707106781186548,0.));
#547=DIRECTION('',(0.518544972870132,-0.518544972870132,0.679869268479042));
#548=DIRECTION('',(0.,0.,-1.));
#549=DIRECTION('',(-0.707106781186547,0.707106781186547,0.));
#550=DIRECTION('',(0.,0.,-1.));
#551=DIRECTION('',(-0.707106781186548,0.707106781186548,0.));
#552=DIRECTION('',(0.,0.,-1.));
#553=DIRECTION('',(-0.707106781186547,0.707106781186547,0.));
#554=DIRECTION('',(2.331468351713E-14,-2.498001805407E-14,-1.));
#555=DIRECTION('',(-2.331468351713E-14,2.498001805407E-14,-1.));
#556=DIRECTION('',(0.,0.,-1.));
#557=DIRECTION('',(-0.707106781186547,0.707106781186547,0.));
#558=DIRECTION('',(0.,0.,-1.));
#559=DIRECTION('',(-0.707106781186547,0.707106781186547,0.));
#560=CARTESIAN_POINT('',(0.,0.,0.));
#561=CARTESIAN_POINT('',(0.,0.,0.));
#562=CARTESIAN_POINT('',(-4.7625,-4.7625,0.));
#563=CARTESIAN_POINT('',(4.3625,-4.7625,0.));
#564=CARTESIAN_POINT('',(-4.7625,-4.3625,0.));
#565=CARTESIAN_POINT('',(-4.3625,4.7625,0.));
#566=CARTESIAN_POINT('',(4.7625,4.3625,0.));
#567=CARTESIAN_POINT('',(-4.3625,-4.3625,0.));
#568=CARTESIAN_POINT('',(-4.3625,-4.3625,0.));
#569=CARTESIAN_POINT('',(-4.3625,4.3625,0.));
#570=CARTESIAN_POINT('',(4.3625,4.3625,0.));
#571=CARTESIAN_POINT('',(4.3625,4.3625,0.));
#572=CARTESIAN_POINT('',(4.3625,-4.3625,0.));
#573=CARTESIAN_POINT('',(0.,0.,0.));
#574=CARTESIAN_POINT('',(-4.7625,-4.7625,0.));
#575=CARTESIAN_POINT('',(0.,0.,0.));
#576=CARTESIAN_POINT('',(-4.3625,4.7625,0.));
#577=CARTESIAN_POINT('',(-4.3625,4.7625,0.));
#578=CARTESIAN_POINT('',(4.3625,4.7625,0.));
#579=CARTESIAN_POINT('',(-4.3625,4.3625,0.));
#580=CARTESIAN_POINT('',(-4.7625,4.3625,0.));
#581=CARTESIAN_POINT('',(-4.7625,-4.3625,0.));
#582=CARTESIAN_POINT('',(-4.7625,-4.3625,0.));
#583=CARTESIAN_POINT('',(-4.3625,-4.3625,0.));
#584=CARTESIAN_POINT('',(-4.645342712475,-4.645342712475,0.));
#585=CARTESIAN_POINT('',(-4.3625,-4.3625,0.));
#586=CARTESIAN_POINT('',(-4.3625,-4.7625,0.));
#587=CARTESIAN_POINT('',(4.3625,-4.7625,0.));
#588=CARTESIAN_POINT('',(4.3625,-4.7625,0.));
#589=CARTESIAN_POINT('',(4.3625,-4.3625,0.));
#590=CARTESIAN_POINT('',(4.7625,-4.3625,0.));
#591=CARTESIAN_POINT('',(4.7625,4.3625,0.));
#592=CARTESIAN_POINT('',(4.7625,4.3625,0.));
#593=CARTESIAN_POINT('',(4.3625,4.3625,0.));
#594=CARTESIAN_POINT('',(4.645342712475,4.645342712475,0.));
#595=CARTESIAN_POINT('',(4.3625,4.3625,0.));
#596=CARTESIAN_POINT('',(0.,0.,0.));
#597=CARTESIAN_POINT('',(-2.12132034356,2.12132034356,0.));
#598=CARTESIAN_POINT('',(2.12132034356,-2.12132034356,0.));
#599=CARTESIAN_POINT('',(0.,0.,0.));
#600=CARTESIAN_POINT('',(0.,0.,0.));
#601=CARTESIAN_POINT('',(4.3625,4.7625,0.));
#602=CARTESIAN_POINT('',(4.3625,4.3625,-3.257738571188));
#603=CARTESIAN_POINT('',(4.3625,4.3625,-3.257738571188));
#604=CARTESIAN_POINT('',(4.3625,4.3625,-1.596291899883));
#605=CARTESIAN_POINT('',(4.3625,4.3625,-3.257738571188));
#606=CARTESIAN_POINT('',(4.275045293215,4.275045293215,-3.97));
#607=CARTESIAN_POINT('',(4.7625,-4.3625,0.));
#608=CARTESIAN_POINT('',(4.3625,-4.3625,-3.257738571188));
#609=CARTESIAN_POINT('',(4.3625,-4.3625,-3.257738571188));
#610=CARTESIAN_POINT('',(4.275045293215,-4.275045293215,-3.97));
#611=CARTESIAN_POINT('',(4.275045293215,-4.275045293215,-3.97));
#612=CARTESIAN_POINT('',(4.7625,-5.482504800192,0.));
#613=CARTESIAN_POINT('',(-4.275045293215,4.275045293215,-3.97));
#614=CARTESIAN_POINT('',(-4.275045293215,4.275045293215,-3.97));
#615=CARTESIAN_POINT('',(-4.275045293215,-4.275045293215,-3.97));
#616=CARTESIAN_POINT('',(4.275045293215,4.275045293215,-3.97));
#617=CARTESIAN_POINT('',(-4.275045293215,-4.275045293215,-3.97));
#618=CARTESIAN_POINT('',(0.,0.,-3.97));
#619=CARTESIAN_POINT('',(1.55563491861,-1.55563491861,-3.97));
#620=CARTESIAN_POINT('',(-1.55563491861,1.55563491861,-3.97));
#621=CARTESIAN_POINT('',(0.,0.,-3.97));
#622=CARTESIAN_POINT('',(0.,0.,-3.97));
#623=CARTESIAN_POINT('',(4.3625,-4.3625,-3.257738571188));
#624=CARTESIAN_POINT('',(-4.3625,-4.7625,0.));
#625=CARTESIAN_POINT('',(-4.3625,-4.3625,-3.257738571188));
#626=CARTESIAN_POINT('',(-4.3625,-4.3625,-3.257738571188));
#627=CARTESIAN_POINT('',(-5.482504800192,-4.7625,0.));
#628=CARTESIAN_POINT('',(-4.3625,-4.3625,-3.257738571188));
#629=CARTESIAN_POINT('',(-4.7625,4.3625,0.));
#630=CARTESIAN_POINT('',(-4.3625,4.3625,-3.257738571188));
#631=CARTESIAN_POINT('',(-4.3625,4.3625,-3.257738571188));
#632=CARTESIAN_POINT('',(-4.7625,5.482504800192,0.));
#633=CARTESIAN_POINT('',(-4.3625,4.3625,-3.257738571188));
#634=CARTESIAN_POINT('',(5.482504800192,4.7625,0.));
#635=CARTESIAN_POINT('',(-4.3625,4.3625,-1.596291899883));
#636=CARTESIAN_POINT('',(-4.3625,-4.3625,-1.596291899883));
#637=CARTESIAN_POINT('',(4.3625,-4.3625,-1.596291899883));
#638=CARTESIAN_POINT('',(1.55563491861,-1.55563491861,-2.839607805437));
#639=CARTESIAN_POINT('',(1.55563491861,-1.55563491861,-2.839607805437));
#640=CARTESIAN_POINT('',(0.,0.,-2.839607805437));
#641=CARTESIAN_POINT('',(-1.55563491861,1.55563491861,-2.839607805437));
#642=CARTESIAN_POINT('',(-1.55563491861,1.55563491861,-2.839607805437));
#643=CARTESIAN_POINT('',(0.,0.,0.1985));
#644=CARTESIAN_POINT('',(0.,0.,-2.839607805437));
#645=CARTESIAN_POINT('',(0.,0.,0.1985));
#646=CARTESIAN_POINT('',(0.,0.,-0.7999999999999));
#647=CARTESIAN_POINT('',(2.12132034356,-2.12132034356,-0.7999999999999));
#648=CARTESIAN_POINT('',(-2.12132034356,2.12132034356,-0.7999999999999));
#649=CARTESIAN_POINT('',(3.67695526217,-3.67695526217,-2.839607805437));
#650=CARTESIAN_POINT('',(-3.67695526217,3.67695526217,-2.839607805437));
#651=CARTESIAN_POINT('',(0.,0.,-2.839607805437));
#652=CARTESIAN_POINT('',(0.,0.,-0.7999999999999));
#653=CARTESIAN_POINT('',(0.,0.,-2.839607805437));
#654=CARTESIAN_POINT('',(-2.12132034356,2.12132034356,0.));
#655=CARTESIAN_POINT('',(2.12132034356,-2.12132034356,0.));
#656=CARTESIAN_POINT('',(0.,0.,0.1985));
#657=CARTESIAN_POINT('',(0.,0.,0.1985));
#658=MECHANICAL_DESIGN_GEOMETRIC_PRESENTATION_REPRESENTATION('',(#368,#369,
#370,#371,#372,#373,#374,#375,#376,#377,#378,#379,#380,#381,#382,#383),
#659);
#659=(
GEOMETRIC_REPRESENTATION_CONTEXT(3)
GLOBAL_UNCERTAINTY_ASSIGNED_CONTEXT((#660))
GLOBAL_UNIT_ASSIGNED_CONTEXT((#666,#662,#661))
REPRESENTATION_CONTEXT('SC09T304N','TOP_LEVEL_ASSEMBLY_PART')
);
#660=UNCERTAINTY_MEASURE_WITH_UNIT(LENGTH_MEASURE(2.E-5),#666,
'DISTANCE_ACCURACY_VALUE','Maximum Tolerance applied to model');
#661=(
NAMED_UNIT(*)
SI_UNIT($,.STERADIAN.)
SOLID_ANGLE_UNIT()
);
#662=(
CONVERSION_BASED_UNIT('DEGREE',#664)
NAMED_UNIT(#663)
PLANE_ANGLE_UNIT()
);
#663=DIMENSIONAL_EXPONENTS(0.,0.,0.,0.,0.,0.,0.);
#664=PLANE_ANGLE_MEASURE_WITH_UNIT(PLANE_ANGLE_MEASURE(0.0174532925),#665);
#665=(
NAMED_UNIT(*)
PLANE_ANGLE_UNIT()
SI_UNIT($,.RADIAN.)
);
#666=(
LENGTH_UNIT()
NAMED_UNIT(*)
SI_UNIT(.MILLI.,.METRE.)
);
ENDSEC;
END-ISO-10303-21;
