ISO-10303-21;
HEADER;
/* Generated by software containing ST-Developer
 * from STEP Tools, Inc. (www.steptools.com) 
 */
/* OPTION: using custom schema-name function */

FILE_DESCRIPTION(
/* description */ (''),
/* implementation_level */ '2;1');

FILE_NAME(
/* name */ 'MP2SDBR0600.stp',
/* time_stamp */ '2023-03-17T09:20:02+09:00',
/* author */ (''),
/* organization */ (''),
/* preprocessor_version */ 'ST-DEVELOPER v16',
/* originating_system */ 'SIEMENS PLM Software NX 10.0',
/* authorisation */ '');

FILE_SCHEMA (('AUTOMOTIVE_DESIGN { 1 0 10303 214 3 1 1 1 }'));
ENDSEC;

DATA;
#10=CONSTRUCTIVE_GEOMETRY_REPRESENTATION_RELATIONSHIP(
'supplemental geometry','',#26,#11);
#11=CONSTRUCTIVE_GEOMETRY_REPRESENTATION('supplemental geometry',(#343,
#344,#345,#346,#347,#348,#349,#350,#351,#352),#578);
#12=GEOMETRICALLY_BOUNDED_WIREFRAME_SHAPE_REPRESENTATION(
'MP2SDBR0600-None',(#27),#578);
#13=SHAPE_REPRESENTATION_RELATIONSHIP('None',
'relationship between MP2SDBR0600-None and MP2SDBR0600-None',#26,#15);
#14=SHAPE_REPRESENTATION_RELATIONSHIP('None',
'relationship between MP2SDBR0600-None and MP2SDBR0600-None',#26,#12);
#15=ADVANCED_BREP_SHAPE_REPRESENTATION('MP2SDBR0600-None',(#44,#45),#578);
#16=SHAPE_DEFINITION_REPRESENTATION(#17,#26);
#17=PRODUCT_DEFINITION_SHAPE('','SHAPE FOR MP2SDBR0600_ASM.',#18);
#18=PRODUCT_DEFINITION('part definition','',#20,#19);
#19=PRODUCT_DEFINITION_CONTEXT('part definition',#25,'design');
#20=PRODUCT_DEFINITION_FORMATION_WITH_SPECIFIED_SOURCE(' ',' ',#22,
 .NOT_KNOWN.);
#21=PRODUCT_RELATED_PRODUCT_CATEGORY('part','',(#22));
#22=PRODUCT('MP2SDBR0600_ASM','MP2SDBR0600_ASM','NOT SPECIFIED',(#23));
#23=PRODUCT_CONTEXT('',#25,'mechanical');
#24=APPLICATION_PROTOCOL_DEFINITION('international standard',
'automotive_design',2010,#25);
#25=APPLICATION_CONTEXT(
'core data for automotive mechanical design processes');
#26=SHAPE_REPRESENTATION('MP2SDBR0600-None',(#341),#578);
#27=GEOMETRIC_CURVE_SET('None',(#498,#264,#265,#266,#267));
#28=CONICAL_SURFACE('',#366,5.925,45.00000000002);
#29=CONICAL_SURFACE('',#370,5.925,45.00000000002);
#30=CONICAL_SURFACE('',#376,5.925,45.);
#31=CONICAL_SURFACE('',#378,5.925,45.);
#32=CONICAL_SURFACE('',#384,5.75,45.);
#33=CONICAL_SURFACE('',#386,5.75,45.);
#34=SURFACE_STYLE_USAGE(.BOTH.,#36);
#35=SURFACE_STYLE_USAGE(.BOTH.,#37);
#36=SURFACE_SIDE_STYLE('',(#38));
#37=SURFACE_SIDE_STYLE('',(#39));
#38=SURFACE_STYLE_FILL_AREA(#40);
#39=SURFACE_STYLE_FILL_AREA(#41);
#40=FILL_AREA_STYLE('',(#42));
#41=FILL_AREA_STYLE('',(#43));
#42=FILL_AREA_STYLE_COLOUR('',#339);
#43=FILL_AREA_STYLE_COLOUR('',#340);
#44=MANIFOLD_SOLID_BREP('CUT',#46);
#45=MANIFOLD_SOLID_BREP('NOCUT',#47);
#46=CLOSED_SHELL('',(#53,#54,#55,#56,#57));
#47=CLOSED_SHELL('',(#58,#59,#60,#61,#62,#63,#64,#65,#66,#67,#68,#69));
#48=SPHERICAL_SURFACE('',#362,6.);
#49=SPHERICAL_SURFACE('',#363,6.);
#50=PLANE('',#357);
#51=PLANE('',#368);
#52=PLANE('',#387);
#53=ADVANCED_FACE('',(#76),#70,.T.);
#54=ADVANCED_FACE('',(#77),#50,.F.);
#55=ADVANCED_FACE('',(#78),#71,.T.);
#56=ADVANCED_FACE('',(#79),#48,.T.);
#57=ADVANCED_FACE('',(#80),#49,.T.);
#58=ADVANCED_FACE('',(#81),#28,.T.);
#59=ADVANCED_FACE('',(#82),#51,.F.);
#60=ADVANCED_FACE('',(#83),#29,.T.);
#61=ADVANCED_FACE('',(#84),#72,.T.);
#62=ADVANCED_FACE('',(#85),#73,.T.);
#63=ADVANCED_FACE('',(#86),#30,.T.);
#64=ADVANCED_FACE('',(#87),#31,.T.);
#65=ADVANCED_FACE('',(#88),#74,.T.);
#66=ADVANCED_FACE('',(#89),#75,.T.);
#67=ADVANCED_FACE('',(#90),#32,.T.);
#68=ADVANCED_FACE('',(#91),#33,.T.);
#69=ADVANCED_FACE('',(#92),#52,.F.);
#70=CYLINDRICAL_SURFACE('',#355,6.);
#71=CYLINDRICAL_SURFACE('',#359,6.);
#72=CYLINDRICAL_SURFACE('',#372,5.85);
#73=CYLINDRICAL_SURFACE('',#374,5.85);
#74=CYLINDRICAL_SURFACE('',#380,6.);
#75=CYLINDRICAL_SURFACE('',#382,6.);
#76=FACE_OUTER_BOUND('',#93,.T.);
#77=FACE_OUTER_BOUND('',#94,.T.);
#78=FACE_OUTER_BOUND('',#95,.T.);
#79=FACE_OUTER_BOUND('',#96,.T.);
#80=FACE_OUTER_BOUND('',#97,.T.);
#81=FACE_OUTER_BOUND('',#98,.T.);
#82=FACE_OUTER_BOUND('',#99,.T.);
#83=FACE_OUTER_BOUND('',#100,.T.);
#84=FACE_OUTER_BOUND('',#101,.T.);
#85=FACE_OUTER_BOUND('',#102,.T.);
#86=FACE_OUTER_BOUND('',#103,.T.);
#87=FACE_OUTER_BOUND('',#104,.T.);
#88=FACE_OUTER_BOUND('',#105,.T.);
#89=FACE_OUTER_BOUND('',#106,.T.);
#90=FACE_OUTER_BOUND('',#107,.T.);
#91=FACE_OUTER_BOUND('',#108,.T.);
#92=FACE_OUTER_BOUND('',#109,.T.);
#93=EDGE_LOOP('',(#110,#111,#112,#113));
#94=EDGE_LOOP('',(#114,#115));
#95=EDGE_LOOP('',(#116,#117,#118,#119));
#96=EDGE_LOOP('',(#120,#121,#122));
#97=EDGE_LOOP('',(#123,#124,#125));
#98=EDGE_LOOP('',(#126,#127,#128,#129));
#99=EDGE_LOOP('',(#130,#131));
#100=EDGE_LOOP('',(#132,#133,#134,#135));
#101=EDGE_LOOP('',(#136,#137,#138,#139));
#102=EDGE_LOOP('',(#140,#141,#142,#143));
#103=EDGE_LOOP('',(#144,#145,#146,#147));
#104=EDGE_LOOP('',(#148,#149,#150,#151));
#105=EDGE_LOOP('',(#152,#153,#154,#155));
#106=EDGE_LOOP('',(#156,#157,#158,#159));
#107=EDGE_LOOP('',(#160,#161,#162,#163));
#108=EDGE_LOOP('',(#164,#165,#166,#167));
#109=EDGE_LOOP('',(#168,#169));
#110=ORIENTED_EDGE('',*,*,#187,.T.);
#111=ORIENTED_EDGE('',*,*,#188,.T.);
#112=ORIENTED_EDGE('',*,*,#189,.F.);
#113=ORIENTED_EDGE('',*,*,#190,.T.);
#114=ORIENTED_EDGE('',*,*,#191,.F.);
#115=ORIENTED_EDGE('',*,*,#190,.F.);
#116=ORIENTED_EDGE('',*,*,#189,.T.);
#117=ORIENTED_EDGE('',*,*,#192,.T.);
#118=ORIENTED_EDGE('',*,*,#187,.F.);
#119=ORIENTED_EDGE('',*,*,#191,.T.);
#120=ORIENTED_EDGE('',*,*,#193,.T.);
#121=ORIENTED_EDGE('',*,*,#192,.F.);
#122=ORIENTED_EDGE('',*,*,#194,.F.);
#123=ORIENTED_EDGE('',*,*,#188,.F.);
#124=ORIENTED_EDGE('',*,*,#193,.F.);
#125=ORIENTED_EDGE('',*,*,#194,.T.);
#126=ORIENTED_EDGE('',*,*,#195,.F.);
#127=ORIENTED_EDGE('',*,*,#196,.F.);
#128=ORIENTED_EDGE('',*,*,#197,.T.);
#129=ORIENTED_EDGE('',*,*,#198,.T.);
#130=ORIENTED_EDGE('',*,*,#199,.F.);
#131=ORIENTED_EDGE('',*,*,#198,.F.);
#132=ORIENTED_EDGE('',*,*,#197,.F.);
#133=ORIENTED_EDGE('',*,*,#200,.F.);
#134=ORIENTED_EDGE('',*,*,#195,.T.);
#135=ORIENTED_EDGE('',*,*,#199,.T.);
#136=ORIENTED_EDGE('',*,*,#200,.T.);
#137=ORIENTED_EDGE('',*,*,#201,.T.);
#138=ORIENTED_EDGE('',*,*,#202,.T.);
#139=ORIENTED_EDGE('',*,*,#203,.F.);
#140=ORIENTED_EDGE('',*,*,#204,.T.);
#141=ORIENTED_EDGE('',*,*,#201,.F.);
#142=ORIENTED_EDGE('',*,*,#196,.T.);
#143=ORIENTED_EDGE('',*,*,#203,.T.);
#144=ORIENTED_EDGE('',*,*,#205,.F.);
#145=ORIENTED_EDGE('',*,*,#206,.T.);
#146=ORIENTED_EDGE('',*,*,#204,.F.);
#147=ORIENTED_EDGE('',*,*,#207,.F.);
#148=ORIENTED_EDGE('',*,*,#202,.F.);
#149=ORIENTED_EDGE('',*,*,#206,.F.);
#150=ORIENTED_EDGE('',*,*,#208,.F.);
#151=ORIENTED_EDGE('',*,*,#207,.T.);
#152=ORIENTED_EDGE('',*,*,#208,.T.);
#153=ORIENTED_EDGE('',*,*,#209,.T.);
#154=ORIENTED_EDGE('',*,*,#210,.T.);
#155=ORIENTED_EDGE('',*,*,#211,.F.);
#156=ORIENTED_EDGE('',*,*,#212,.T.);
#157=ORIENTED_EDGE('',*,*,#209,.F.);
#158=ORIENTED_EDGE('',*,*,#205,.T.);
#159=ORIENTED_EDGE('',*,*,#211,.T.);
#160=ORIENTED_EDGE('',*,*,#213,.T.);
#161=ORIENTED_EDGE('',*,*,#214,.T.);
#162=ORIENTED_EDGE('',*,*,#212,.F.);
#163=ORIENTED_EDGE('',*,*,#215,.F.);
#164=ORIENTED_EDGE('',*,*,#210,.F.);
#165=ORIENTED_EDGE('',*,*,#214,.F.);
#166=ORIENTED_EDGE('',*,*,#216,.T.);
#167=ORIENTED_EDGE('',*,*,#215,.T.);
#168=ORIENTED_EDGE('',*,*,#213,.F.);
#169=ORIENTED_EDGE('',*,*,#216,.F.);
#170=VERTEX_POINT('',#514);
#171=VERTEX_POINT('',#515);
#172=VERTEX_POINT('',#517);
#173=VERTEX_POINT('',#519);
#174=VERTEX_POINT('',#527);
#175=VERTEX_POINT('',#532);
#176=VERTEX_POINT('',#533);
#177=VERTEX_POINT('',#535);
#178=VERTEX_POINT('',#537);
#179=VERTEX_POINT('',#545);
#180=VERTEX_POINT('',#547);
#181=VERTEX_POINT('',#553);
#182=VERTEX_POINT('',#554);
#183=VERTEX_POINT('',#561);
#184=VERTEX_POINT('',#563);
#185=VERTEX_POINT('',#569);
#186=VERTEX_POINT('',#570);
#187=EDGE_CURVE('',#170,#171,#271,.T.);
#188=EDGE_CURVE('',#171,#172,#218,.T.);
#189=EDGE_CURVE('',#173,#172,#272,.T.);
#190=EDGE_CURVE('',#173,#170,#219,.T.);
#191=EDGE_CURVE('',#170,#173,#220,.T.);
#192=EDGE_CURVE('',#172,#171,#221,.T.);
#193=EDGE_CURVE('',#174,#171,#222,.T.);
#194=EDGE_CURVE('',#174,#172,#223,.T.);
#195=EDGE_CURVE('',#175,#176,#273,.T.);
#196=EDGE_CURVE('',#177,#175,#224,.T.);
#197=EDGE_CURVE('',#177,#178,#274,.T.);
#198=EDGE_CURVE('',#178,#176,#225,.T.);
#199=EDGE_CURVE('',#176,#178,#226,.T.);
#200=EDGE_CURVE('',#175,#177,#227,.T.);
#201=EDGE_CURVE('',#177,#179,#275,.T.);
#202=EDGE_CURVE('',#179,#180,#228,.T.);
#203=EDGE_CURVE('',#175,#180,#276,.T.);
#204=EDGE_CURVE('',#180,#179,#229,.T.);
#205=EDGE_CURVE('',#181,#182,#230,.T.);
#206=EDGE_CURVE('',#181,#179,#277,.T.);
#207=EDGE_CURVE('',#182,#180,#278,.T.);
#208=EDGE_CURVE('',#182,#181,#231,.T.);
#209=EDGE_CURVE('',#181,#183,#279,.T.);
#210=EDGE_CURVE('',#183,#184,#232,.T.);
#211=EDGE_CURVE('',#182,#184,#280,.T.);
#212=EDGE_CURVE('',#184,#183,#233,.T.);
#213=EDGE_CURVE('',#185,#186,#234,.T.);
#214=EDGE_CURVE('',#186,#183,#281,.T.);
#215=EDGE_CURVE('',#185,#184,#282,.T.);
#216=EDGE_CURVE('',#186,#185,#235,.T.);
#217=CIRCLE('',#342,6.);
#218=CIRCLE('',#353,6.);
#219=CIRCLE('',#354,6.);
#220=CIRCLE('',#356,6.);
#221=CIRCLE('',#358,6.);
#222=CIRCLE('',#360,6.);
#223=CIRCLE('',#361,6.);
#224=CIRCLE('',#364,5.85);
#225=CIRCLE('',#365,6.);
#226=CIRCLE('',#367,6.);
#227=CIRCLE('',#369,5.85);
#228=CIRCLE('',#371,5.85);
#229=CIRCLE('',#373,5.85);
#230=CIRCLE('',#375,6.);
#231=CIRCLE('',#377,6.);
#232=CIRCLE('',#379,6.);
#233=CIRCLE('',#381,6.);
#234=CIRCLE('',#383,5.5);
#235=CIRCLE('',#385,5.5);
#236=CURVE_STYLE('',#250,POSITIVE_LENGTH_MEASURE(0.18),#336);
#237=CURVE_STYLE('',#251,POSITIVE_LENGTH_MEASURE(0.18),#336);
#238=CURVE_STYLE('',#252,POSITIVE_LENGTH_MEASURE(0.18),#336);
#239=CURVE_STYLE('',#253,POSITIVE_LENGTH_MEASURE(0.18),#336);
#240=CURVE_STYLE('',#254,POSITIVE_LENGTH_MEASURE(0.13),#337);
#241=CURVE_STYLE('',#255,POSITIVE_LENGTH_MEASURE(0.13),#337);
#242=CURVE_STYLE('',#256,POSITIVE_LENGTH_MEASURE(0.13),#338);
#243=CURVE_STYLE('',#257,POSITIVE_LENGTH_MEASURE(0.13),#338);
#244=CURVE_STYLE('',#258,POSITIVE_LENGTH_MEASURE(0.13),#337);
#245=CURVE_STYLE('',#259,POSITIVE_LENGTH_MEASURE(0.13),#337);
#246=CURVE_STYLE('',#260,POSITIVE_LENGTH_MEASURE(0.13),#338);
#247=CURVE_STYLE('',#261,POSITIVE_LENGTH_MEASURE(0.13),#337);
#248=CURVE_STYLE('',#262,POSITIVE_LENGTH_MEASURE(0.13),#337);
#249=CURVE_STYLE('',#263,POSITIVE_LENGTH_MEASURE(0.13),#337);
#250=DRAUGHTING_PRE_DEFINED_CURVE_FONT('continuous');
#251=DRAUGHTING_PRE_DEFINED_CURVE_FONT('continuous');
#252=DRAUGHTING_PRE_DEFINED_CURVE_FONT('continuous');
#253=DRAUGHTING_PRE_DEFINED_CURVE_FONT('continuous');
#254=DRAUGHTING_PRE_DEFINED_CURVE_FONT('continuous');
#255=DRAUGHTING_PRE_DEFINED_CURVE_FONT('continuous');
#256=DRAUGHTING_PRE_DEFINED_CURVE_FONT('continuous');
#257=DRAUGHTING_PRE_DEFINED_CURVE_FONT('continuous');
#258=DRAUGHTING_PRE_DEFINED_CURVE_FONT('continuous');
#259=DRAUGHTING_PRE_DEFINED_CURVE_FONT('continuous');
#260=DRAUGHTING_PRE_DEFINED_CURVE_FONT('continuous');
#261=DRAUGHTING_PRE_DEFINED_CURVE_FONT('continuous');
#262=DRAUGHTING_PRE_DEFINED_CURVE_FONT('continuous');
#263=DRAUGHTING_PRE_DEFINED_CURVE_FONT('continuous');
#264=TRIMMED_CURVE('',#268,(PARAMETER_VALUE(0.)),(PARAMETER_VALUE(1.)),
 .T.,.PARAMETER.);
#265=TRIMMED_CURVE('',#269,(PARAMETER_VALUE(0.)),(PARAMETER_VALUE(1.)),
 .T.,.PARAMETER.);
#266=TRIMMED_CURVE('',#270,(PARAMETER_VALUE(0.)),(PARAMETER_VALUE(1.)),
 .T.,.PARAMETER.);
#267=TRIMMED_CURVE('',#217,(PARAMETER_VALUE(0.)),(PARAMETER_VALUE(90.)),
 .T.,.PARAMETER.);
#268=LINE('',#499,#283);
#269=LINE('',#500,#284);
#270=LINE('',#501,#285);
#271=LINE('',#513,#286);
#272=LINE('',#518,#287);
#273=LINE('',#531,#288);
#274=LINE('',#536,#289);
#275=LINE('',#544,#290);
#276=LINE('',#548,#291);
#277=LINE('',#555,#292);
#278=LINE('',#556,#293);
#279=LINE('',#560,#294);
#280=LINE('',#564,#295);
#281=LINE('',#571,#296);
#282=LINE('',#572,#297);
#283=VECTOR('',#390,16.);
#284=VECTOR('',#391,6.);
#285=VECTOR('',#392,22.);
#286=VECTOR('',#415,1.);
#287=VECTOR('',#418,1.);
#288=VECTOR('',#439,1.);
#289=VECTOR('',#442,1.);
#290=VECTOR('',#455,1.);
#291=VECTOR('',#458,1.);
#292=VECTOR('',#467,1.);
#293=VECTOR('',#468,1.);
#294=VECTOR('',#475,1.);
#295=VECTOR('',#478,1.);
#296=VECTOR('',#487,1.);
#297=VECTOR('',#488,1.);
#298=PRESENTATION_LAYER_ASSIGNMENT('1','Layer 1',(#498,#264,#265,#266,#267,
#343,#344,#347,#348,#349,#350,#351,#352,#44,#45));
#299=PRESENTATION_LAYER_ASSIGNMENT('2','Layer 2',(#345,#346));
#300=STYLED_ITEM('',(#317),#498);
#301=STYLED_ITEM('',(#318),#264);
#302=STYLED_ITEM('',(#319),#265);
#303=STYLED_ITEM('',(#320),#266);
#304=STYLED_ITEM('',(#321),#267);
#305=STYLED_ITEM('',(#322),#343);
#306=STYLED_ITEM('',(#323),#344);
#307=STYLED_ITEM('',(#324),#345);
#308=STYLED_ITEM('',(#325),#346);
#309=STYLED_ITEM('',(#326),#347);
#310=STYLED_ITEM('',(#327),#348);
#311=STYLED_ITEM('',(#328),#349);
#312=STYLED_ITEM('',(#329),#350);
#313=STYLED_ITEM('',(#330),#351);
#314=STYLED_ITEM('',(#331),#352);
#315=STYLED_ITEM('',(#332),#44);
#316=STYLED_ITEM('',(#333),#45);
#317=PRESENTATION_STYLE_ASSIGNMENT((#334));
#318=PRESENTATION_STYLE_ASSIGNMENT((#236));
#319=PRESENTATION_STYLE_ASSIGNMENT((#237));
#320=PRESENTATION_STYLE_ASSIGNMENT((#238));
#321=PRESENTATION_STYLE_ASSIGNMENT((#239));
#322=PRESENTATION_STYLE_ASSIGNMENT((#240));
#323=PRESENTATION_STYLE_ASSIGNMENT((#241));
#324=PRESENTATION_STYLE_ASSIGNMENT((#242));
#325=PRESENTATION_STYLE_ASSIGNMENT((#243));
#326=PRESENTATION_STYLE_ASSIGNMENT((#244));
#327=PRESENTATION_STYLE_ASSIGNMENT((#245));
#328=PRESENTATION_STYLE_ASSIGNMENT((#246));
#329=PRESENTATION_STYLE_ASSIGNMENT((#247));
#330=PRESENTATION_STYLE_ASSIGNMENT((#248));
#331=PRESENTATION_STYLE_ASSIGNMENT((#249));
#332=PRESENTATION_STYLE_ASSIGNMENT((#34));
#333=PRESENTATION_STYLE_ASSIGNMENT((#35));
#334=POINT_STYLE('',#335,POSITIVE_LENGTH_MEASURE(3.),#336);
#335=PRE_DEFINED_POINT_MARKER_SYMBOL('plus');
#336=COLOUR_RGB('Medium Royal',0.2,0.4,0.8);
#337=COLOUR_RGB('Strong Stone',0.576470588235294,0.54508278019379,0.392156862745098);
#338=COLOUR_RGB('Medium Umber',0.372533760585946,0.313725490196078,0.270572976272221);
#339=COLOUR_RGB('cutting part',0.8,0.8,0.8);
#340=COLOUR_RGB('non-cutting part and shank',0.501960784313725,0.501960784313725,
0.501960784313725);
#341=AXIS2_PLACEMENT_3D('',#497,#388,#389);
#342=AXIS2_PLACEMENT_3D('',#502,#393,#394);
#343=AXIS2_PLACEMENT_3D('',#503,#395,#396);
#344=AXIS2_PLACEMENT_3D('',#504,#397,#398);
#345=AXIS2_PLACEMENT_3D('CIP',#505,#399,#400);
#346=AXIS2_PLACEMENT_3D('PCS',#506,#401,#402);
#347=AXIS2_PLACEMENT_3D('MCS',#507,#403,#404);
#348=AXIS2_PLACEMENT_3D('',#508,#405,#406);
#349=AXIS2_PLACEMENT_3D('STEP_TEMP_EM12_1',#509,#407,#408);
#350=AXIS2_PLACEMENT_3D('',#510,#409,#410);
#351=AXIS2_PLACEMENT_3D('',#511,#411,#412);
#352=AXIS2_PLACEMENT_3D('',#512,#413,#414);
#353=AXIS2_PLACEMENT_3D('',#516,#416,#417);
#354=AXIS2_PLACEMENT_3D('',#520,#419,#420);
#355=AXIS2_PLACEMENT_3D('',#521,#421,#422);
#356=AXIS2_PLACEMENT_3D('',#522,#423,#424);
#357=AXIS2_PLACEMENT_3D('',#523,#425,#426);
#358=AXIS2_PLACEMENT_3D('',#524,#427,#428);
#359=AXIS2_PLACEMENT_3D('',#525,#429,#430);
#360=AXIS2_PLACEMENT_3D('',#526,#431,#432);
#361=AXIS2_PLACEMENT_3D('',#528,#433,#434);
#362=AXIS2_PLACEMENT_3D('',#529,#435,#436);
#363=AXIS2_PLACEMENT_3D('',#530,#437,#438);
#364=AXIS2_PLACEMENT_3D('',#534,#440,#441);
#365=AXIS2_PLACEMENT_3D('',#538,#443,#444);
#366=AXIS2_PLACEMENT_3D('',#539,#445,#446);
#367=AXIS2_PLACEMENT_3D('',#540,#447,#448);
#368=AXIS2_PLACEMENT_3D('',#541,#449,#450);
#369=AXIS2_PLACEMENT_3D('',#542,#451,#452);
#370=AXIS2_PLACEMENT_3D('',#543,#453,#454);
#371=AXIS2_PLACEMENT_3D('',#546,#456,#457);
#372=AXIS2_PLACEMENT_3D('',#549,#459,#460);
#373=AXIS2_PLACEMENT_3D('',#550,#461,#462);
#374=AXIS2_PLACEMENT_3D('',#551,#463,#464);
#375=AXIS2_PLACEMENT_3D('',#552,#465,#466);
#376=AXIS2_PLACEMENT_3D('',#557,#469,#470);
#377=AXIS2_PLACEMENT_3D('',#558,#471,#472);
#378=AXIS2_PLACEMENT_3D('',#559,#473,#474);
#379=AXIS2_PLACEMENT_3D('',#562,#476,#477);
#380=AXIS2_PLACEMENT_3D('',#565,#479,#480);
#381=AXIS2_PLACEMENT_3D('',#566,#481,#482);
#382=AXIS2_PLACEMENT_3D('',#567,#483,#484);
#383=AXIS2_PLACEMENT_3D('',#568,#485,#486);
#384=AXIS2_PLACEMENT_3D('',#573,#489,#490);
#385=AXIS2_PLACEMENT_3D('',#574,#491,#492);
#386=AXIS2_PLACEMENT_3D('',#575,#493,#494);
#387=AXIS2_PLACEMENT_3D('',#576,#495,#496);
#388=DIRECTION('',(0.,0.,1.));
#389=DIRECTION('',(1.,0.,0.));
#390=DIRECTION('',(0.,0.,1.));
#391=DIRECTION('',(1.,0.,0.));
#392=DIRECTION('',(0.,0.,-1.));
#393=DIRECTION('',(0.,1.,0.));
#394=DIRECTION('',(0.,0.,-1.));
#395=DIRECTION('',(0.,0.,1.));
#396=DIRECTION('',(1.,0.,0.));
#397=DIRECTION('',(0.,0.,1.));
#398=DIRECTION('',(1.,0.,0.));
#399=DIRECTION('',(0.,0.,1.));
#400=DIRECTION('',(1.,0.,0.));
#401=DIRECTION('',(0.,0.,1.));
#402=DIRECTION('',(1.,0.,0.));
#403=DIRECTION('',(0.,0.,1.));
#404=DIRECTION('',(1.,0.,0.));
#405=DIRECTION('',(0.,0.,1.));
#406=DIRECTION('',(1.,0.,0.));
#407=DIRECTION('',(0.,0.,1.));
#408=DIRECTION('',(1.,0.,0.));
#409=DIRECTION('',(0.,0.,1.));
#410=DIRECTION('',(1.,0.,0.));
#411=DIRECTION('',(0.,0.,1.));
#412=DIRECTION('',(1.,0.,0.));
#413=DIRECTION('',(0.,0.,1.));
#414=DIRECTION('',(1.,0.,0.));
#415=DIRECTION('',(0.,0.,-1.));
#416=DIRECTION('',(0.,0.,1.));
#417=DIRECTION('',(0.,-1.,0.));
#418=DIRECTION('',(0.,0.,-1.));
#419=DIRECTION('',(0.,0.,-1.));
#420=DIRECTION('',(0.,1.,0.));
#421=DIRECTION('',(0.,0.,-1.));
#422=DIRECTION('',(0.,1.,0.));
#423=DIRECTION('',(0.,0.,-1.));
#424=DIRECTION('',(0.,-1.,0.));
#425=DIRECTION('',(0.,0.,-1.));
#426=DIRECTION('',(1.,0.,0.));
#427=DIRECTION('',(0.,0.,1.));
#428=DIRECTION('',(0.,1.,0.));
#429=DIRECTION('',(0.,0.,-1.));
#430=DIRECTION('',(0.,1.,0.));
#431=DIRECTION('',(-1.,0.,0.));
#432=DIRECTION('',(0.,-1.,0.));
#433=DIRECTION('',(1.,0.,0.));
#434=DIRECTION('',(0.,1.,0.));
#435=DIRECTION('',(0.,6.12323399573677E-17,-1.));
#436=DIRECTION('',(0.,1.,0.));
#437=DIRECTION('',(0.,6.12323399573677E-17,-1.));
#438=DIRECTION('',(0.,1.,0.));
#439=DIRECTION('',(0.,0.707106781186598,-0.707106781186498));
#440=DIRECTION('',(0.,0.,1.));
#441=DIRECTION('',(0.,-1.,0.));
#442=DIRECTION('',(0.,-0.707106781186697,-0.707106781186397));
#443=DIRECTION('',(0.,0.,1.));
#444=DIRECTION('',(0.,-1.,0.));
#445=DIRECTION('',(0.,0.,-1.));
#446=DIRECTION('',(0.,1.,-4.48371502600747E-17));
#447=DIRECTION('',(0.,0.,1.));
#448=DIRECTION('',(0.,1.,0.));
#449=DIRECTION('',(0.,0.,1.));
#450=DIRECTION('',(-1.,0.,0.));
#451=DIRECTION('',(0.,0.,1.));
#452=DIRECTION('',(0.,1.,0.));
#453=DIRECTION('',(0.,0.,-1.));
#454=DIRECTION('',(0.,1.,-4.48371502600747E-17));
#455=DIRECTION('',(0.,0.,1.));
#456=DIRECTION('',(0.,0.,-1.));
#457=DIRECTION('',(0.,-1.,0.));
#458=DIRECTION('',(0.,0.,1.));
#459=DIRECTION('',(0.,0.,-1.));
#460=DIRECTION('',(0.,1.,0.));
#461=DIRECTION('',(0.,0.,-1.));
#462=DIRECTION('',(0.,1.,0.));
#463=DIRECTION('',(0.,0.,-1.));
#464=DIRECTION('',(0.,1.,0.));
#465=DIRECTION('',(0.,0.,1.));
#466=DIRECTION('',(0.,-1.,0.));
#467=DIRECTION('',(0.,0.707106781186498,-0.707106781186598));
#468=DIRECTION('',(0.,-0.707106781186498,-0.707106781186598));
#469=DIRECTION('',(0.,0.,1.));
#470=DIRECTION('',(0.,-1.,7.5878254286333E-17));
#471=DIRECTION('',(0.,0.,1.));
#472=DIRECTION('',(0.,1.,0.));
#473=DIRECTION('',(0.,0.,1.));
#474=DIRECTION('',(0.,-1.,7.5878254286333E-17));
#475=DIRECTION('',(0.,0.,1.));
#476=DIRECTION('',(0.,0.,-1.));
#477=DIRECTION('',(0.,-1.,0.));
#478=DIRECTION('',(0.,0.,1.));
#479=DIRECTION('',(0.,0.,-1.));
#480=DIRECTION('',(0.,1.,0.));
#481=DIRECTION('',(0.,0.,-1.));
#482=DIRECTION('',(0.,1.,0.));
#483=DIRECTION('',(0.,0.,-1.));
#484=DIRECTION('',(0.,1.,0.));
#485=DIRECTION('',(0.,0.,-1.));
#486=DIRECTION('',(0.,1.,0.));
#487=DIRECTION('',(0.,-0.707106781186547,-0.707106781186547));
#488=DIRECTION('',(0.,0.707106781186547,-0.707106781186547));
#489=DIRECTION('',(0.,0.,-1.));
#490=DIRECTION('',(0.,1.,1.37984467390648E-17));
#491=DIRECTION('',(0.,0.,-1.));
#492=DIRECTION('',(0.,-1.,0.));
#493=DIRECTION('',(0.,0.,-1.));
#494=DIRECTION('',(0.,1.,1.37984467390648E-17));
#495=DIRECTION('',(0.,0.,-1.));
#496=DIRECTION('',(0.,1.,0.));
#497=CARTESIAN_POINT('',(0.,0.,0.));
#498=CARTESIAN_POINT('CRP',(-6.,0.,0.));
#499=CARTESIAN_POINT('',(-6.,0.,6.));
#500=CARTESIAN_POINT('',(-6.,0.,22.));
#501=CARTESIAN_POINT('',(0.,0.,22.));
#502=CARTESIAN_POINT('',(0.,0.,6.));
#503=CARTESIAN_POINT('',(0.,0.,0.));
#504=CARTESIAN_POINT('',(0.,0.,0.));
#505=CARTESIAN_POINT('',(0.,0.,0.));
#506=CARTESIAN_POINT('',(0.,0.,110.));
#507=CARTESIAN_POINT('',(0.,0.,80.));
#508=CARTESIAN_POINT('',(0.,0.,0.));
#509=CARTESIAN_POINT('',(0.,0.,0.));
#510=CARTESIAN_POINT('',(0.,0.,0.));
#511=CARTESIAN_POINT('',(0.,0.,0.));
#512=CARTESIAN_POINT('',(0.,0.,0.));
#513=CARTESIAN_POINT('',(0.,-6.,22.));
#514=CARTESIAN_POINT('',(0.,-6.,22.));
#515=CARTESIAN_POINT('',(0.,-6.,6.));
#516=CARTESIAN_POINT('',(0.,0.,6.));
#517=CARTESIAN_POINT('',(0.,6.,6.));
#518=CARTESIAN_POINT('',(0.,6.,22.));
#519=CARTESIAN_POINT('',(0.,6.,22.));
#520=CARTESIAN_POINT('',(0.,2.011893684408E-14,22.));
#521=CARTESIAN_POINT('',(0.,2.011893684408E-14,115.5));
#522=CARTESIAN_POINT('',(0.,2.011893684408E-14,22.));
#523=CARTESIAN_POINT('',(150.,150.,22.));
#524=CARTESIAN_POINT('',(0.,0.,6.));
#525=CARTESIAN_POINT('',(0.,2.011893684408E-14,115.5));
#526=CARTESIAN_POINT('',(0.,0.,6.));
#527=CARTESIAN_POINT('',(0.,0.,0.));
#528=CARTESIAN_POINT('',(0.,0.,6.));
#529=CARTESIAN_POINT('',(0.,0.,6.));
#530=CARTESIAN_POINT('',(0.,0.,6.));
#531=CARTESIAN_POINT('',(0.,5.85,22.15));
#532=CARTESIAN_POINT('',(0.,5.85,22.15));
#533=CARTESIAN_POINT('',(0.,6.,22.));
#534=CARTESIAN_POINT('',(0.,0.,22.15));
#535=CARTESIAN_POINT('',(0.,-5.85,22.15));
#536=CARTESIAN_POINT('',(0.,-5.85,22.15));
#537=CARTESIAN_POINT('',(0.,-6.,22.));
#538=CARTESIAN_POINT('',(0.,0.,22.));
#539=CARTESIAN_POINT('',(0.,0.,22.075));
#540=CARTESIAN_POINT('',(0.,0.,22.));
#541=CARTESIAN_POINT('',(-150.,150.,22.));
#542=CARTESIAN_POINT('',(0.,0.,22.15));
#543=CARTESIAN_POINT('',(0.,0.,22.075));
#544=CARTESIAN_POINT('',(0.,-5.85,36.));
#545=CARTESIAN_POINT('',(0.,-5.85,36.));
#546=CARTESIAN_POINT('',(0.,0.,36.));
#547=CARTESIAN_POINT('',(0.,5.85,36.));
#548=CARTESIAN_POINT('',(0.,5.85,36.));
#549=CARTESIAN_POINT('',(0.,2.011893684408E-14,115.5));
#550=CARTESIAN_POINT('',(0.,0.,36.));
#551=CARTESIAN_POINT('',(0.,2.011893684408E-14,115.5));
#552=CARTESIAN_POINT('',(0.,0.,36.15));
#553=CARTESIAN_POINT('',(0.,-6.,36.15));
#554=CARTESIAN_POINT('',(0.,6.,36.15));
#555=CARTESIAN_POINT('',(0.,-6.,36.15));
#556=CARTESIAN_POINT('',(0.,6.,36.15));
#557=CARTESIAN_POINT('',(0.,0.,36.075));
#558=CARTESIAN_POINT('',(0.,0.,36.15));
#559=CARTESIAN_POINT('',(0.,0.,36.075));
#560=CARTESIAN_POINT('',(0.,-6.,109.5));
#561=CARTESIAN_POINT('',(0.,-6.,109.5));
#562=CARTESIAN_POINT('',(0.,1.906267897981E-14,109.5));
#563=CARTESIAN_POINT('',(0.,6.,109.5));
#564=CARTESIAN_POINT('',(0.,6.,109.5));
#565=CARTESIAN_POINT('',(0.,2.011893684408E-14,115.5));
#566=CARTESIAN_POINT('',(0.,1.906267897981E-14,109.5));
#567=CARTESIAN_POINT('',(0.,2.011893684408E-14,115.5));
#568=CARTESIAN_POINT('',(0.,1.906267897981E-14,110.));
#569=CARTESIAN_POINT('',(0.,5.5,110.));
#570=CARTESIAN_POINT('',(0.,-5.5,110.));
#571=CARTESIAN_POINT('',(0.,-5.5,110.));
#572=CARTESIAN_POINT('',(0.,5.5,110.));
#573=CARTESIAN_POINT('',(0.,1.906267897981E-14,109.75));
#574=CARTESIAN_POINT('',(0.,1.906267897981E-14,110.));
#575=CARTESIAN_POINT('',(0.,1.906267897981E-14,109.75));
#576=CARTESIAN_POINT('',(0.,1.910860323478E-14,110.));
#577=MECHANICAL_DESIGN_GEOMETRIC_PRESENTATION_REPRESENTATION('',(#300,#301,
#302,#303,#304,#305,#306,#307,#308,#309,#310,#311,#312,#313,#314,#315,#316),
#578);
#578=(
GEOMETRIC_REPRESENTATION_CONTEXT(3)
GLOBAL_UNCERTAINTY_ASSIGNED_CONTEXT((#579))
GLOBAL_UNIT_ASSIGNED_CONTEXT((#585,#581,#580))
REPRESENTATION_CONTEXT('MP2SDBR0600','TOP_LEVEL_ASSEMBLY_PART')
);
#579=UNCERTAINTY_MEASURE_WITH_UNIT(LENGTH_MEASURE(2.E-5),#585,
'DISTANCE_ACCURACY_VALUE','Maximum Tolerance applied to model');
#580=(
NAMED_UNIT(*)
SI_UNIT($,.STERADIAN.)
SOLID_ANGLE_UNIT()
);
#581=(
CONVERSION_BASED_UNIT('DEGREE',#583)
NAMED_UNIT(#582)
PLANE_ANGLE_UNIT()
);
#582=DIMENSIONAL_EXPONENTS(0.,0.,0.,0.,0.,0.,0.);
#583=PLANE_ANGLE_MEASURE_WITH_UNIT(PLANE_ANGLE_MEASURE(0.0174532925),#584);
#584=(
NAMED_UNIT(*)
PLANE_ANGLE_UNIT()
SI_UNIT($,.RADIAN.)
);
#585=(
LENGTH_UNIT()
NAMED_UNIT(*)
SI_UNIT(.MILLI.,.METRE.)
);
ENDSEC;
END-ISO-10303-21;
