ISO-10303-21;
HEADER;
/* Generated by software containing ST-Developer
 * from STEP Tools, Inc. (www.steptools.com) 
 */
/* OPTION: using custom schema-name function */

FILE_DESCRIPTION(
/* description */ (''),
/* implementation_level */ '2;1');

FILE_NAME(
/* name */ 'VFHVRBD1200R30N060.stp',
/* time_stamp */ '2023-03-17T09:18:07+09:00',
/* author */ (''),
/* organization */ (''),
/* preprocessor_version */ 'ST-DEVELOPER v16',
/* originating_system */ 'SIEMENS PLM Software NX 10.0',
/* authorisation */ '');

FILE_SCHEMA (('AUTOMOTIVE_DESIGN { 1 0 10303 214 3 1 1 1 }'));
ENDSEC;

DATA;
#10=CONSTRUCTIVE_GEOMETRY_REPRESENTATION_RELATIONSHIP(
'supplemental geometry','',#26,#11);
#11=CONSTRUCTIVE_GEOMETRY_REPRESENTATION('supplemental geometry',(#363,
#364,#365,#366,#367,#368,#369,#370,#371,#372),#637);
#12=GEOMETRICALLY_BOUNDED_WIREFRAME_SHAPE_REPRESENTATION(
'VFHVRBD1200R30N060-None',(#27),#637);
#13=SHAPE_REPRESENTATION_RELATIONSHIP('None',
'relationship between VFHVRBD1200R30N060-None and VFHVRBD1200R30N060-N
one',#26,#15);
#14=SHAPE_REPRESENTATION_RELATIONSHIP('None',
'relationship between VFHVRBD1200R30N060-None and VFHVRBD1200R30N060-N
one',#26,#12);
#15=ADVANCED_BREP_SHAPE_REPRESENTATION('VFHVRBD1200R30N060-None',(#44,#45),
#637);
#16=SHAPE_DEFINITION_REPRESENTATION(#17,#26);
#17=PRODUCT_DEFINITION_SHAPE('','SHAPE FOR VFHVRBD1200R30N060_ASM.',#18);
#18=PRODUCT_DEFINITION('part definition','',#20,#19);
#19=PRODUCT_DEFINITION_CONTEXT('part definition',#25,'design');
#20=PRODUCT_DEFINITION_FORMATION_WITH_SPECIFIED_SOURCE(' ',' ',#22,
 .NOT_KNOWN.);
#21=PRODUCT_RELATED_PRODUCT_CATEGORY('part','',(#22));
#22=PRODUCT('VFHVRBD1200R30N060_ASM','VFHVRBD1200R30N060_ASM',
'NOT SPECIFIED',(#23));
#23=PRODUCT_CONTEXT('',#25,'mechanical');
#24=APPLICATION_PROTOCOL_DEFINITION('international standard',
'automotive_design',2010,#25);
#25=APPLICATION_CONTEXT(
'core data for automotive mechanical design processes');
#26=SHAPE_REPRESENTATION('VFHVRBD1200R30N060-None',(#361),#637);
#27=GEOMETRIC_CURVE_SET('None',(#522,#279,#280,#281,#282,#283));
#28=CONICAL_SURFACE('',#387,5.925,44.99999999997);
#29=CONICAL_SURFACE('',#391,5.925,44.99999999997);
#30=CONICAL_SURFACE('',#397,5.925,44.99999999994);
#31=CONICAL_SURFACE('',#399,5.925,44.99999999994);
#32=CONICAL_SURFACE('',#405,5.75,45.);
#33=CONICAL_SURFACE('',#407,5.75,45.);
#34=SURFACE_STYLE_USAGE(.BOTH.,#36);
#35=SURFACE_STYLE_USAGE(.BOTH.,#37);
#36=SURFACE_SIDE_STYLE('',(#38));
#37=SURFACE_SIDE_STYLE('',(#39));
#38=SURFACE_STYLE_FILL_AREA(#40);
#39=SURFACE_STYLE_FILL_AREA(#41);
#40=FILL_AREA_STYLE('',(#42));
#41=FILL_AREA_STYLE('',(#43));
#42=FILL_AREA_STYLE_COLOUR('',#359);
#43=FILL_AREA_STYLE_COLOUR('',#360);
#44=MANIFOLD_SOLID_BREP('CUT',#46);
#45=MANIFOLD_SOLID_BREP('NOCUT',#47);
#46=CLOSED_SHELL('',(#54,#55,#56,#57,#58,#59));
#47=CLOSED_SHELL('',(#60,#61,#62,#63,#64,#65,#66,#67,#68,#69,#70,#71));
#48=(
BOUNDED_SURFACE()
B_SPLINE_SURFACE(3,3,((#556,#557,#558,#559),(#560,#561,#562,#563),(#564,
#565,#566,#567),(#568,#569,#570,#571)),.UNSPECIFIED.,.F.,.F.,.F.)
B_SPLINE_SURFACE_WITH_KNOTS((4,4),(4,4),(0.,1.),(0.,1.),.UNSPECIFIED.)
GEOMETRIC_REPRESENTATION_ITEM()
RATIONAL_B_SPLINE_SURFACE(((1.,0.333333333333374,0.333333333333374,1.),
(0.804737854124354,0.268245951374817,0.268245951374817,0.804737854124354),
(0.804737854124354,0.268245951374817,0.268245951374817,0.804737854124354),
(1.,0.333333333333374,0.333333333333374,1.)))
REPRESENTATION_ITEM('')
SURFACE()
);
#49=(
BOUNDED_SURFACE()
B_SPLINE_SURFACE(3,3,((#573,#574,#575,#576),(#577,#578,#579,#580),(#581,
#582,#583,#584),(#585,#586,#587,#588)),.UNSPECIFIED.,.F.,.F.,.F.)
B_SPLINE_SURFACE_WITH_KNOTS((4,4),(4,4),(0.,1.),(0.,1.),.UNSPECIFIED.)
GEOMETRIC_REPRESENTATION_ITEM()
RATIONAL_B_SPLINE_SURFACE(((1.,0.333333333333377,0.333333333333377,1.),
(0.804737854124391,0.268245951374832,0.268245951374832,0.804737854124391),
(0.804737854124391,0.268245951374832,0.268245951374832,0.804737854124391),
(1.,0.333333333333377,0.333333333333377,1.)))
REPRESENTATION_ITEM('')
SURFACE()
);
#50=PLANE('',#377);
#51=PLANE('',#384);
#52=PLANE('',#389);
#53=PLANE('',#408);
#54=ADVANCED_FACE('',(#78),#72,.T.);
#55=ADVANCED_FACE('',(#79),#50,.F.);
#56=ADVANCED_FACE('',(#80),#73,.T.);
#57=ADVANCED_FACE('',(#81),#48,.T.);
#58=ADVANCED_FACE('',(#82),#49,.T.);
#59=ADVANCED_FACE('',(#83),#51,.T.);
#60=ADVANCED_FACE('',(#84),#28,.T.);
#61=ADVANCED_FACE('',(#85),#52,.F.);
#62=ADVANCED_FACE('',(#86),#29,.T.);
#63=ADVANCED_FACE('',(#87),#74,.T.);
#64=ADVANCED_FACE('',(#88),#75,.T.);
#65=ADVANCED_FACE('',(#89),#30,.T.);
#66=ADVANCED_FACE('',(#90),#31,.T.);
#67=ADVANCED_FACE('',(#91),#76,.T.);
#68=ADVANCED_FACE('',(#92),#77,.T.);
#69=ADVANCED_FACE('',(#93),#32,.T.);
#70=ADVANCED_FACE('',(#94),#33,.T.);
#71=ADVANCED_FACE('',(#95),#53,.F.);
#72=CYLINDRICAL_SURFACE('',#375,6.);
#73=CYLINDRICAL_SURFACE('',#379,6.);
#74=CYLINDRICAL_SURFACE('',#393,5.85);
#75=CYLINDRICAL_SURFACE('',#395,5.85);
#76=CYLINDRICAL_SURFACE('',#401,6.);
#77=CYLINDRICAL_SURFACE('',#403,6.);
#78=FACE_OUTER_BOUND('',#96,.T.);
#79=FACE_OUTER_BOUND('',#97,.T.);
#80=FACE_OUTER_BOUND('',#98,.T.);
#81=FACE_OUTER_BOUND('',#99,.T.);
#82=FACE_OUTER_BOUND('',#100,.T.);
#83=FACE_OUTER_BOUND('',#101,.T.);
#84=FACE_OUTER_BOUND('',#102,.T.);
#85=FACE_OUTER_BOUND('',#103,.T.);
#86=FACE_OUTER_BOUND('',#104,.T.);
#87=FACE_OUTER_BOUND('',#105,.T.);
#88=FACE_OUTER_BOUND('',#106,.T.);
#89=FACE_OUTER_BOUND('',#107,.T.);
#90=FACE_OUTER_BOUND('',#108,.T.);
#91=FACE_OUTER_BOUND('',#109,.T.);
#92=FACE_OUTER_BOUND('',#110,.T.);
#93=FACE_OUTER_BOUND('',#111,.T.);
#94=FACE_OUTER_BOUND('',#112,.T.);
#95=FACE_OUTER_BOUND('',#113,.T.);
#96=EDGE_LOOP('',(#114,#115,#116,#117));
#97=EDGE_LOOP('',(#118,#119));
#98=EDGE_LOOP('',(#120,#121,#122,#123));
#99=EDGE_LOOP('',(#124,#125,#126,#127));
#100=EDGE_LOOP('',(#128,#129,#130,#131));
#101=EDGE_LOOP('',(#132,#133));
#102=EDGE_LOOP('',(#134,#135,#136,#137));
#103=EDGE_LOOP('',(#138,#139));
#104=EDGE_LOOP('',(#140,#141,#142,#143));
#105=EDGE_LOOP('',(#144,#145,#146,#147));
#106=EDGE_LOOP('',(#148,#149,#150,#151));
#107=EDGE_LOOP('',(#152,#153,#154,#155));
#108=EDGE_LOOP('',(#156,#157,#158,#159));
#109=EDGE_LOOP('',(#160,#161,#162,#163));
#110=EDGE_LOOP('',(#164,#165,#166,#167));
#111=EDGE_LOOP('',(#168,#169,#170,#171));
#112=EDGE_LOOP('',(#172,#173,#174,#175));
#113=EDGE_LOOP('',(#176,#177));
#114=ORIENTED_EDGE('',*,*,#196,.T.);
#115=ORIENTED_EDGE('',*,*,#197,.T.);
#116=ORIENTED_EDGE('',*,*,#198,.F.);
#117=ORIENTED_EDGE('',*,*,#199,.T.);
#118=ORIENTED_EDGE('',*,*,#200,.F.);
#119=ORIENTED_EDGE('',*,*,#199,.F.);
#120=ORIENTED_EDGE('',*,*,#198,.T.);
#121=ORIENTED_EDGE('',*,*,#201,.T.);
#122=ORIENTED_EDGE('',*,*,#196,.F.);
#123=ORIENTED_EDGE('',*,*,#200,.T.);
#124=ORIENTED_EDGE('',*,*,#202,.T.);
#125=ORIENTED_EDGE('',*,*,#203,.T.);
#126=ORIENTED_EDGE('',*,*,#201,.F.);
#127=ORIENTED_EDGE('',*,*,#204,.F.);
#128=ORIENTED_EDGE('',*,*,#197,.F.);
#129=ORIENTED_EDGE('',*,*,#203,.F.);
#130=ORIENTED_EDGE('',*,*,#205,.T.);
#131=ORIENTED_EDGE('',*,*,#204,.T.);
#132=ORIENTED_EDGE('',*,*,#205,.F.);
#133=ORIENTED_EDGE('',*,*,#202,.F.);
#134=ORIENTED_EDGE('',*,*,#206,.F.);
#135=ORIENTED_EDGE('',*,*,#207,.F.);
#136=ORIENTED_EDGE('',*,*,#208,.T.);
#137=ORIENTED_EDGE('',*,*,#209,.T.);
#138=ORIENTED_EDGE('',*,*,#210,.F.);
#139=ORIENTED_EDGE('',*,*,#209,.F.);
#140=ORIENTED_EDGE('',*,*,#208,.F.);
#141=ORIENTED_EDGE('',*,*,#211,.F.);
#142=ORIENTED_EDGE('',*,*,#206,.T.);
#143=ORIENTED_EDGE('',*,*,#210,.T.);
#144=ORIENTED_EDGE('',*,*,#211,.T.);
#145=ORIENTED_EDGE('',*,*,#212,.T.);
#146=ORIENTED_EDGE('',*,*,#213,.T.);
#147=ORIENTED_EDGE('',*,*,#214,.F.);
#148=ORIENTED_EDGE('',*,*,#215,.T.);
#149=ORIENTED_EDGE('',*,*,#212,.F.);
#150=ORIENTED_EDGE('',*,*,#207,.T.);
#151=ORIENTED_EDGE('',*,*,#214,.T.);
#152=ORIENTED_EDGE('',*,*,#216,.F.);
#153=ORIENTED_EDGE('',*,*,#217,.T.);
#154=ORIENTED_EDGE('',*,*,#215,.F.);
#155=ORIENTED_EDGE('',*,*,#218,.F.);
#156=ORIENTED_EDGE('',*,*,#213,.F.);
#157=ORIENTED_EDGE('',*,*,#217,.F.);
#158=ORIENTED_EDGE('',*,*,#219,.F.);
#159=ORIENTED_EDGE('',*,*,#218,.T.);
#160=ORIENTED_EDGE('',*,*,#219,.T.);
#161=ORIENTED_EDGE('',*,*,#220,.T.);
#162=ORIENTED_EDGE('',*,*,#221,.T.);
#163=ORIENTED_EDGE('',*,*,#222,.F.);
#164=ORIENTED_EDGE('',*,*,#223,.T.);
#165=ORIENTED_EDGE('',*,*,#220,.F.);
#166=ORIENTED_EDGE('',*,*,#216,.T.);
#167=ORIENTED_EDGE('',*,*,#222,.T.);
#168=ORIENTED_EDGE('',*,*,#224,.T.);
#169=ORIENTED_EDGE('',*,*,#225,.T.);
#170=ORIENTED_EDGE('',*,*,#223,.F.);
#171=ORIENTED_EDGE('',*,*,#226,.F.);
#172=ORIENTED_EDGE('',*,*,#221,.F.);
#173=ORIENTED_EDGE('',*,*,#225,.F.);
#174=ORIENTED_EDGE('',*,*,#227,.T.);
#175=ORIENTED_EDGE('',*,*,#226,.T.);
#176=ORIENTED_EDGE('',*,*,#224,.F.);
#177=ORIENTED_EDGE('',*,*,#227,.F.);
#178=VERTEX_POINT('',#539);
#179=VERTEX_POINT('',#540);
#180=VERTEX_POINT('',#542);
#181=VERTEX_POINT('',#544);
#182=VERTEX_POINT('',#552);
#183=VERTEX_POINT('',#553);
#184=VERTEX_POINT('',#591);
#185=VERTEX_POINT('',#592);
#186=VERTEX_POINT('',#594);
#187=VERTEX_POINT('',#596);
#188=VERTEX_POINT('',#604);
#189=VERTEX_POINT('',#606);
#190=VERTEX_POINT('',#612);
#191=VERTEX_POINT('',#613);
#192=VERTEX_POINT('',#620);
#193=VERTEX_POINT('',#622);
#194=VERTEX_POINT('',#628);
#195=VERTEX_POINT('',#629);
#196=EDGE_CURVE('',#178,#179,#288,.T.);
#197=EDGE_CURVE('',#179,#180,#229,.T.);
#198=EDGE_CURVE('',#181,#180,#289,.T.);
#199=EDGE_CURVE('',#181,#178,#230,.T.);
#200=EDGE_CURVE('',#178,#181,#231,.T.);
#201=EDGE_CURVE('',#180,#179,#232,.T.);
#202=EDGE_CURVE('',#182,#183,#233,.T.);
#203=EDGE_CURVE('',#183,#179,#234,.T.);
#204=EDGE_CURVE('',#182,#180,#235,.T.);
#205=EDGE_CURVE('',#183,#182,#236,.T.);
#206=EDGE_CURVE('',#184,#185,#290,.T.);
#207=EDGE_CURVE('',#186,#184,#237,.T.);
#208=EDGE_CURVE('',#186,#187,#291,.T.);
#209=EDGE_CURVE('',#187,#185,#238,.T.);
#210=EDGE_CURVE('',#185,#187,#239,.T.);
#211=EDGE_CURVE('',#184,#186,#240,.T.);
#212=EDGE_CURVE('',#186,#188,#292,.T.);
#213=EDGE_CURVE('',#188,#189,#241,.T.);
#214=EDGE_CURVE('',#184,#189,#293,.T.);
#215=EDGE_CURVE('',#189,#188,#242,.T.);
#216=EDGE_CURVE('',#190,#191,#243,.T.);
#217=EDGE_CURVE('',#190,#188,#294,.T.);
#218=EDGE_CURVE('',#191,#189,#295,.T.);
#219=EDGE_CURVE('',#191,#190,#244,.T.);
#220=EDGE_CURVE('',#190,#192,#296,.T.);
#221=EDGE_CURVE('',#192,#193,#245,.T.);
#222=EDGE_CURVE('',#191,#193,#297,.T.);
#223=EDGE_CURVE('',#193,#192,#246,.T.);
#224=EDGE_CURVE('',#194,#195,#247,.T.);
#225=EDGE_CURVE('',#195,#192,#298,.T.);
#226=EDGE_CURVE('',#194,#193,#299,.T.);
#227=EDGE_CURVE('',#195,#194,#248,.T.);
#228=CIRCLE('',#362,3.);
#229=CIRCLE('',#373,6.);
#230=CIRCLE('',#374,6.);
#231=CIRCLE('',#376,6.);
#232=CIRCLE('',#378,6.);
#233=CIRCLE('',#380,3.);
#234=CIRCLE('',#381,3.);
#235=CIRCLE('',#382,3.);
#236=CIRCLE('',#383,3.);
#237=CIRCLE('',#385,5.85);
#238=CIRCLE('',#386,6.);
#239=CIRCLE('',#388,6.);
#240=CIRCLE('',#390,5.85);
#241=CIRCLE('',#392,5.85);
#242=CIRCLE('',#394,5.85);
#243=CIRCLE('',#396,6.);
#244=CIRCLE('',#398,6.);
#245=CIRCLE('',#400,6.);
#246=CIRCLE('',#402,6.);
#247=CIRCLE('',#404,5.5);
#248=CIRCLE('',#406,5.5);
#249=CURVE_STYLE('',#264,POSITIVE_LENGTH_MEASURE(0.18),#356);
#250=CURVE_STYLE('',#265,POSITIVE_LENGTH_MEASURE(0.18),#356);
#251=CURVE_STYLE('',#266,POSITIVE_LENGTH_MEASURE(0.18),#356);
#252=CURVE_STYLE('',#267,POSITIVE_LENGTH_MEASURE(0.18),#356);
#253=CURVE_STYLE('',#268,POSITIVE_LENGTH_MEASURE(0.18),#356);
#254=CURVE_STYLE('',#269,POSITIVE_LENGTH_MEASURE(0.13),#357);
#255=CURVE_STYLE('',#270,POSITIVE_LENGTH_MEASURE(0.13),#357);
#256=CURVE_STYLE('',#271,POSITIVE_LENGTH_MEASURE(0.13),#358);
#257=CURVE_STYLE('',#272,POSITIVE_LENGTH_MEASURE(0.13),#358);
#258=CURVE_STYLE('',#273,POSITIVE_LENGTH_MEASURE(0.13),#357);
#259=CURVE_STYLE('',#274,POSITIVE_LENGTH_MEASURE(0.13),#357);
#260=CURVE_STYLE('',#275,POSITIVE_LENGTH_MEASURE(0.13),#358);
#261=CURVE_STYLE('',#276,POSITIVE_LENGTH_MEASURE(0.13),#357);
#262=CURVE_STYLE('',#277,POSITIVE_LENGTH_MEASURE(0.13),#357);
#263=CURVE_STYLE('',#278,POSITIVE_LENGTH_MEASURE(0.13),#357);
#264=DRAUGHTING_PRE_DEFINED_CURVE_FONT('continuous');
#265=DRAUGHTING_PRE_DEFINED_CURVE_FONT('continuous');
#266=DRAUGHTING_PRE_DEFINED_CURVE_FONT('continuous');
#267=DRAUGHTING_PRE_DEFINED_CURVE_FONT('continuous');
#268=DRAUGHTING_PRE_DEFINED_CURVE_FONT('continuous');
#269=DRAUGHTING_PRE_DEFINED_CURVE_FONT('continuous');
#270=DRAUGHTING_PRE_DEFINED_CURVE_FONT('continuous');
#271=DRAUGHTING_PRE_DEFINED_CURVE_FONT('continuous');
#272=DRAUGHTING_PRE_DEFINED_CURVE_FONT('continuous');
#273=DRAUGHTING_PRE_DEFINED_CURVE_FONT('continuous');
#274=DRAUGHTING_PRE_DEFINED_CURVE_FONT('continuous');
#275=DRAUGHTING_PRE_DEFINED_CURVE_FONT('continuous');
#276=DRAUGHTING_PRE_DEFINED_CURVE_FONT('continuous');
#277=DRAUGHTING_PRE_DEFINED_CURVE_FONT('continuous');
#278=DRAUGHTING_PRE_DEFINED_CURVE_FONT('continuous');
#279=TRIMMED_CURVE('',#284,(PARAMETER_VALUE(0.)),(PARAMETER_VALUE(1.)),
 .T.,.PARAMETER.);
#280=TRIMMED_CURVE('',#285,(PARAMETER_VALUE(0.)),(PARAMETER_VALUE(1.)),
 .T.,.PARAMETER.);
#281=TRIMMED_CURVE('',#286,(PARAMETER_VALUE(0.)),(PARAMETER_VALUE(1.)),
 .T.,.PARAMETER.);
#282=TRIMMED_CURVE('',#287,(PARAMETER_VALUE(0.)),(PARAMETER_VALUE(1.)),
 .T.,.PARAMETER.);
#283=TRIMMED_CURVE('',#228,(PARAMETER_VALUE(0.)),(PARAMETER_VALUE(90.)),
 .T.,.PARAMETER.);
#284=LINE('',#523,#300);
#285=LINE('',#524,#301);
#286=LINE('',#525,#302);
#287=LINE('',#526,#303);
#288=LINE('',#538,#304);
#289=LINE('',#543,#305);
#290=LINE('',#590,#306);
#291=LINE('',#595,#307);
#292=LINE('',#603,#308);
#293=LINE('',#607,#309);
#294=LINE('',#614,#310);
#295=LINE('',#615,#311);
#296=LINE('',#619,#312);
#297=LINE('',#623,#313);
#298=LINE('',#630,#314);
#299=LINE('',#631,#315);
#300=VECTOR('',#411,3.);
#301=VECTOR('',#412,15.);
#302=VECTOR('',#413,6.);
#303=VECTOR('',#414,18.);
#304=VECTOR('',#437,1.);
#305=VECTOR('',#440,1.);
#306=VECTOR('',#463,1.);
#307=VECTOR('',#466,1.);
#308=VECTOR('',#479,1.);
#309=VECTOR('',#482,1.);
#310=VECTOR('',#491,1.);
#311=VECTOR('',#492,1.);
#312=VECTOR('',#499,1.);
#313=VECTOR('',#502,1.);
#314=VECTOR('',#511,1.);
#315=VECTOR('',#512,1.);
#316=PRESENTATION_LAYER_ASSIGNMENT('1','Layer 1',(#522,#279,#280,#281,#282,
#283,#363,#364,#367,#368,#369,#370,#371,#372,#44,#45));
#317=PRESENTATION_LAYER_ASSIGNMENT('2','Layer 2',(#365,#366));
#318=STYLED_ITEM('',(#336),#522);
#319=STYLED_ITEM('',(#337),#279);
#320=STYLED_ITEM('',(#338),#280);
#321=STYLED_ITEM('',(#339),#281);
#322=STYLED_ITEM('',(#340),#282);
#323=STYLED_ITEM('',(#341),#283);
#324=STYLED_ITEM('',(#342),#363);
#325=STYLED_ITEM('',(#343),#364);
#326=STYLED_ITEM('',(#344),#365);
#327=STYLED_ITEM('',(#345),#366);
#328=STYLED_ITEM('',(#346),#367);
#329=STYLED_ITEM('',(#347),#368);
#330=STYLED_ITEM('',(#348),#369);
#331=STYLED_ITEM('',(#349),#370);
#332=STYLED_ITEM('',(#350),#371);
#333=STYLED_ITEM('',(#351),#372);
#334=STYLED_ITEM('',(#352),#44);
#335=STYLED_ITEM('',(#353),#45);
#336=PRESENTATION_STYLE_ASSIGNMENT((#354));
#337=PRESENTATION_STYLE_ASSIGNMENT((#249));
#338=PRESENTATION_STYLE_ASSIGNMENT((#250));
#339=PRESENTATION_STYLE_ASSIGNMENT((#251));
#340=PRESENTATION_STYLE_ASSIGNMENT((#252));
#341=PRESENTATION_STYLE_ASSIGNMENT((#253));
#342=PRESENTATION_STYLE_ASSIGNMENT((#254));
#343=PRESENTATION_STYLE_ASSIGNMENT((#255));
#344=PRESENTATION_STYLE_ASSIGNMENT((#256));
#345=PRESENTATION_STYLE_ASSIGNMENT((#257));
#346=PRESENTATION_STYLE_ASSIGNMENT((#258));
#347=PRESENTATION_STYLE_ASSIGNMENT((#259));
#348=PRESENTATION_STYLE_ASSIGNMENT((#260));
#349=PRESENTATION_STYLE_ASSIGNMENT((#261));
#350=PRESENTATION_STYLE_ASSIGNMENT((#262));
#351=PRESENTATION_STYLE_ASSIGNMENT((#263));
#352=PRESENTATION_STYLE_ASSIGNMENT((#34));
#353=PRESENTATION_STYLE_ASSIGNMENT((#35));
#354=POINT_STYLE('',#355,POSITIVE_LENGTH_MEASURE(3.),#356);
#355=PRE_DEFINED_POINT_MARKER_SYMBOL('plus');
#356=COLOUR_RGB('Medium Royal',0.2,0.4,0.8);
#357=COLOUR_RGB('Strong Stone',0.576470588235294,0.54508278019379,0.392156862745098);
#358=COLOUR_RGB('Medium Umber',0.372533760585946,0.313725490196078,0.270572976272221);
#359=COLOUR_RGB('cutting part',0.8,0.8,0.8);
#360=COLOUR_RGB('non-cutting part and shank',0.501960784313725,0.501960784313725,
0.501960784313725);
#361=AXIS2_PLACEMENT_3D('',#521,#409,#410);
#362=AXIS2_PLACEMENT_3D('',#527,#415,#416);
#363=AXIS2_PLACEMENT_3D('',#528,#417,#418);
#364=AXIS2_PLACEMENT_3D('',#529,#419,#420);
#365=AXIS2_PLACEMENT_3D('CIP',#530,#421,#422);
#366=AXIS2_PLACEMENT_3D('PCS',#531,#423,#424);
#367=AXIS2_PLACEMENT_3D('MCS',#532,#425,#426);
#368=AXIS2_PLACEMENT_3D('',#533,#427,#428);
#369=AXIS2_PLACEMENT_3D('STEP_TEMP_EM23_1',#534,#429,#430);
#370=AXIS2_PLACEMENT_3D('',#535,#431,#432);
#371=AXIS2_PLACEMENT_3D('',#536,#433,#434);
#372=AXIS2_PLACEMENT_3D('',#537,#435,#436);
#373=AXIS2_PLACEMENT_3D('',#541,#438,#439);
#374=AXIS2_PLACEMENT_3D('',#545,#441,#442);
#375=AXIS2_PLACEMENT_3D('',#546,#443,#444);
#376=AXIS2_PLACEMENT_3D('',#547,#445,#446);
#377=AXIS2_PLACEMENT_3D('',#548,#447,#448);
#378=AXIS2_PLACEMENT_3D('',#549,#449,#450);
#379=AXIS2_PLACEMENT_3D('',#550,#451,#452);
#380=AXIS2_PLACEMENT_3D('',#551,#453,#454);
#381=AXIS2_PLACEMENT_3D('',#554,#455,#456);
#382=AXIS2_PLACEMENT_3D('',#555,#457,#458);
#383=AXIS2_PLACEMENT_3D('',#572,#459,#460);
#384=AXIS2_PLACEMENT_3D('',#589,#461,#462);
#385=AXIS2_PLACEMENT_3D('',#593,#464,#465);
#386=AXIS2_PLACEMENT_3D('',#597,#467,#468);
#387=AXIS2_PLACEMENT_3D('',#598,#469,#470);
#388=AXIS2_PLACEMENT_3D('',#599,#471,#472);
#389=AXIS2_PLACEMENT_3D('',#600,#473,#474);
#390=AXIS2_PLACEMENT_3D('',#601,#475,#476);
#391=AXIS2_PLACEMENT_3D('',#602,#477,#478);
#392=AXIS2_PLACEMENT_3D('',#605,#480,#481);
#393=AXIS2_PLACEMENT_3D('',#608,#483,#484);
#394=AXIS2_PLACEMENT_3D('',#609,#485,#486);
#395=AXIS2_PLACEMENT_3D('',#610,#487,#488);
#396=AXIS2_PLACEMENT_3D('',#611,#489,#490);
#397=AXIS2_PLACEMENT_3D('',#616,#493,#494);
#398=AXIS2_PLACEMENT_3D('',#617,#495,#496);
#399=AXIS2_PLACEMENT_3D('',#618,#497,#498);
#400=AXIS2_PLACEMENT_3D('',#621,#500,#501);
#401=AXIS2_PLACEMENT_3D('',#624,#503,#504);
#402=AXIS2_PLACEMENT_3D('',#625,#505,#506);
#403=AXIS2_PLACEMENT_3D('',#626,#507,#508);
#404=AXIS2_PLACEMENT_3D('',#627,#509,#510);
#405=AXIS2_PLACEMENT_3D('',#632,#513,#514);
#406=AXIS2_PLACEMENT_3D('',#633,#515,#516);
#407=AXIS2_PLACEMENT_3D('',#634,#517,#518);
#408=AXIS2_PLACEMENT_3D('',#635,#519,#520);
#409=DIRECTION('',(0.,0.,1.));
#410=DIRECTION('',(1.,0.,0.));
#411=DIRECTION('',(-1.,0.,0.));
#412=DIRECTION('',(0.,0.,1.));
#413=DIRECTION('',(1.,0.,0.));
#414=DIRECTION('',(0.,0.,-1.));
#415=DIRECTION('',(0.,1.,0.));
#416=DIRECTION('',(0.,0.,-1.));
#417=DIRECTION('',(0.,0.,1.));
#418=DIRECTION('',(1.,0.,0.));
#419=DIRECTION('',(0.,0.,1.));
#420=DIRECTION('',(1.,0.,0.));
#421=DIRECTION('',(0.,0.,1.));
#422=DIRECTION('',(1.,0.,0.));
#423=DIRECTION('',(0.,0.,1.));
#424=DIRECTION('',(1.,0.,0.));
#425=DIRECTION('',(0.,0.,1.));
#426=DIRECTION('',(1.,0.,0.));
#427=DIRECTION('',(0.,0.,1.));
#428=DIRECTION('',(1.,0.,0.));
#429=DIRECTION('',(0.,0.,1.));
#430=DIRECTION('',(1.,0.,0.));
#431=DIRECTION('',(0.,0.,1.));
#432=DIRECTION('',(1.,0.,0.));
#433=DIRECTION('',(0.,0.,1.));
#434=DIRECTION('',(1.,0.,0.));
#435=DIRECTION('',(0.,0.,1.));
#436=DIRECTION('',(1.,0.,0.));
#437=DIRECTION('',(0.,0.,-1.));
#438=DIRECTION('',(0.,0.,1.));
#439=DIRECTION('',(0.,-1.,0.));
#440=DIRECTION('',(0.,0.,-1.));
#441=DIRECTION('',(0.,0.,-1.));
#442=DIRECTION('',(0.,1.,0.));
#443=DIRECTION('',(0.,0.,-1.));
#444=DIRECTION('',(0.,1.,0.));
#445=DIRECTION('',(0.,0.,-1.));
#446=DIRECTION('',(0.,-1.,0.));
#447=DIRECTION('',(0.,0.,-1.));
#448=DIRECTION('',(1.,0.,0.));
#449=DIRECTION('',(0.,0.,1.));
#450=DIRECTION('',(0.,1.,0.));
#451=DIRECTION('',(0.,0.,-1.));
#452=DIRECTION('',(0.,1.,0.));
#453=DIRECTION('',(0.,0.,1.));
#454=DIRECTION('',(0.,1.,0.));
#455=DIRECTION('',(-1.,0.,0.));
#456=DIRECTION('',(0.,-1.,0.));
#457=DIRECTION('',(1.,0.,0.));
#458=DIRECTION('',(0.,1.,0.));
#459=DIRECTION('',(0.,0.,1.));
#460=DIRECTION('',(0.,-1.,0.));
#461=DIRECTION('',(0.,0.,-1.));
#462=DIRECTION('',(0.,1.,0.));
#463=DIRECTION('',(0.,0.707106781186198,-0.707106781186898));
#464=DIRECTION('',(0.,0.,1.));
#465=DIRECTION('',(0.,-1.,0.));
#466=DIRECTION('',(0.,-0.707106781186298,-0.707106781186798));
#467=DIRECTION('',(0.,0.,1.));
#468=DIRECTION('',(0.,-1.,0.));
#469=DIRECTION('',(0.,0.,-1.));
#470=DIRECTION('',(0.,1.,-4.82861618186258E-17));
#471=DIRECTION('',(0.,0.,1.));
#472=DIRECTION('',(0.,1.,0.));
#473=DIRECTION('',(0.,0.,1.));
#474=DIRECTION('',(-1.,0.,0.));
#475=DIRECTION('',(0.,0.,1.));
#476=DIRECTION('',(0.,1.,0.));
#477=DIRECTION('',(0.,0.,-1.));
#478=DIRECTION('',(0.,1.,-4.82861618186258E-17));
#479=DIRECTION('',(0.,0.,1.));
#480=DIRECTION('',(0.,0.,-1.));
#481=DIRECTION('',(0.,-1.,0.));
#482=DIRECTION('',(0.,0.,1.));
#483=DIRECTION('',(0.,0.,-1.));
#484=DIRECTION('',(0.,1.,0.));
#485=DIRECTION('',(0.,0.,-1.));
#486=DIRECTION('',(0.,1.,0.));
#487=DIRECTION('',(0.,0.,-1.));
#488=DIRECTION('',(0.,1.,0.));
#489=DIRECTION('',(0.,0.,1.));
#490=DIRECTION('',(0.,-1.,0.));
#491=DIRECTION('',(0.,0.707106781186098,-0.707106781186998));
#492=DIRECTION('',(0.,-0.707106781186098,-0.707106781186998));
#493=DIRECTION('',(0.,0.,1.));
#494=DIRECTION('',(0.,-1.,6.89802311695372E-18));
#495=DIRECTION('',(0.,0.,1.));
#496=DIRECTION('',(0.,1.,0.));
#497=DIRECTION('',(0.,0.,1.));
#498=DIRECTION('',(0.,-1.,6.89802311695372E-18));
#499=DIRECTION('',(0.,0.,1.));
#500=DIRECTION('',(0.,0.,-1.));
#501=DIRECTION('',(0.,-1.,0.));
#502=DIRECTION('',(0.,0.,1.));
#503=DIRECTION('',(0.,0.,-1.));
#504=DIRECTION('',(0.,1.,0.));
#505=DIRECTION('',(0.,0.,-1.));
#506=DIRECTION('',(0.,1.,0.));
#507=DIRECTION('',(0.,0.,-1.));
#508=DIRECTION('',(0.,1.,0.));
#509=DIRECTION('',(0.,0.,-1.));
#510=DIRECTION('',(0.,1.,0.));
#511=DIRECTION('',(0.,-0.707106781186547,-0.707106781186547));
#512=DIRECTION('',(0.,0.707106781186547,-0.707106781186547));
#513=DIRECTION('',(0.,0.,-1.));
#514=DIRECTION('',(0.,1.,1.37984467390648E-17));
#515=DIRECTION('',(0.,0.,-1.));
#516=DIRECTION('',(0.,-1.,0.));
#517=DIRECTION('',(0.,0.,-1.));
#518=DIRECTION('',(0.,1.,1.37984467390648E-17));
#519=DIRECTION('',(0.,0.,-1.));
#520=DIRECTION('',(0.,1.,0.));
#521=CARTESIAN_POINT('',(0.,0.,0.));
#522=CARTESIAN_POINT('CRP',(-6.,0.,0.));
#523=CARTESIAN_POINT('',(0.,0.,0.));
#524=CARTESIAN_POINT('',(-6.,0.,3.));
#525=CARTESIAN_POINT('',(-6.,0.,18.));
#526=CARTESIAN_POINT('',(0.,0.,18.));
#527=CARTESIAN_POINT('',(-3.,0.,3.));
#528=CARTESIAN_POINT('',(0.,0.,0.));
#529=CARTESIAN_POINT('',(0.,0.,0.));
#530=CARTESIAN_POINT('',(0.,0.,0.));
#531=CARTESIAN_POINT('',(0.,0.,120.));
#532=CARTESIAN_POINT('',(0.,0.,90.));
#533=CARTESIAN_POINT('',(0.,0.,0.));
#534=CARTESIAN_POINT('',(0.,0.,0.));
#535=CARTESIAN_POINT('',(0.,0.,0.));
#536=CARTESIAN_POINT('',(0.,0.,0.));
#537=CARTESIAN_POINT('',(0.,0.,0.));
#538=CARTESIAN_POINT('',(0.,-6.,18.));
#539=CARTESIAN_POINT('',(0.,-6.,18.));
#540=CARTESIAN_POINT('',(0.,-6.,3.));
#541=CARTESIAN_POINT('',(0.,-2.148006492213E-14,3.));
#542=CARTESIAN_POINT('',(0.,6.,3.));
#543=CARTESIAN_POINT('',(0.,6.,18.));
#544=CARTESIAN_POINT('',(0.,6.,18.));
#545=CARTESIAN_POINT('',(0.,0.,18.));
#546=CARTESIAN_POINT('',(0.,0.,126.));
#547=CARTESIAN_POINT('',(0.,0.,18.));
#548=CARTESIAN_POINT('',(150.,150.,18.));
#549=CARTESIAN_POINT('',(0.,-2.148006492213E-14,3.));
#550=CARTESIAN_POINT('',(0.,0.,126.));
#551=CARTESIAN_POINT('',(0.,-2.148006492213E-14,0.));
#552=CARTESIAN_POINT('',(0.,3.,0.));
#553=CARTESIAN_POINT('',(0.,-3.,0.));
#554=CARTESIAN_POINT('',(0.,-3.,3.));
#555=CARTESIAN_POINT('',(0.,3.,3.));
#556=CARTESIAN_POINT('',(1.8224549202254E-13,-2.99999999999954,-8.32667268468867E-14));
#557=CARTESIAN_POINT('',(-5.99999999999863,-2.99999999999917,-8.26047917244431E-14));
#558=CARTESIAN_POINT('',(-5.99999999999863,2.99999999999964,-8.33096810351575E-14));
#559=CARTESIAN_POINT('',(1.81143309903307E-13,3.,-8.39716161576012E-14));
#560=CARTESIAN_POINT('',(7.63230004878193E-14,-4.75735931288039,-1.90642459776093E-13));
#561=CARTESIAN_POINT('',(-9.51471862576002,-4.75735931287982,-1.89592772036333E-13));
#562=CARTESIAN_POINT('',(-9.51471862576002,4.75735931288028,-1.90710575945292E-13));
#563=CARTESIAN_POINT('',(7.45751750313453E-14,4.75735931288086,-1.91760263685053E-13));
#564=CARTESIAN_POINT('',(1.56157969600471E-15,-5.99999999999982,1.24264068711915));
#565=CARTESIAN_POINT('',(-11.9999999999987,-5.9999999999991,1.24264068711915));
#566=CARTESIAN_POINT('',(-11.9999999999987,5.99999999999956,1.24264068711915));
#567=CARTESIAN_POINT('',(-6.42784542460614E-16,6.00000000000029,1.24264068711915));
#568=CARTESIAN_POINT('',(1.75545600466146E-15,-5.99999999999985,3.));
#569=CARTESIAN_POINT('',(-11.9999999999987,-5.99999999999913,3.));
#570=CARTESIAN_POINT('',(-11.9999999999987,5.99999999999959,3.));
#571=CARTESIAN_POINT('',(-4.48908233803874E-16,6.00000000000031,3.));
#572=CARTESIAN_POINT('',(0.,-2.148006492213E-14,0.));
#573=CARTESIAN_POINT('',(-1.96031598403067E-13,3.,-8.32667268468867E-14));
#574=CARTESIAN_POINT('',(5.99999999999856,2.99999999999961,-8.26047917244432E-14));
#575=CARTESIAN_POINT('',(5.99999999999856,-2.99999999999915,-8.33096810351577E-14));
#576=CARTESIAN_POINT('',(-1.96702653204144E-13,-2.99999999999954,-8.39716161576014E-14));
#577=CARTESIAN_POINT('',(-8.10050704035728E-14,4.75735931288064,8.2506048261854E-14));
#578=CARTESIAN_POINT('',(9.51471862575949,4.75735931288002,8.3555736001614E-14));
#579=CARTESIAN_POINT('',(9.51471862575949,-4.75735931287956,8.24379320926546E-14));
#580=CARTESIAN_POINT('',(-8.20692200060258E-14,-4.75735931288018,8.13882443528945E-14));
#581=CARTESIAN_POINT('',(1.93876308646535E-16,5.99999999999982,1.24264068711936));
#582=CARTESIAN_POINT('',(11.9999999999976,5.99999999999904,1.24264068711937));
#583=CARTESIAN_POINT('',(11.9999999999976,-5.99999999999858,1.24264068711936));
#584=CARTESIAN_POINT('',(-1.14823329350843E-15,-5.99999999999936,1.24264068711936));
#585=CARTESIAN_POINT('',(-1.00579765415679E-26,5.99999999999985,3.));
#586=CARTESIAN_POINT('',(11.9999999999977,5.99999999999906,3.));
#587=CARTESIAN_POINT('',(11.9999999999977,-5.9999999999986,3.));
#588=CARTESIAN_POINT('',(-1.34210960216497E-15,-5.99999999999939,3.));
#589=CARTESIAN_POINT('',(0.,-2.203115598175E-14,0.));
#590=CARTESIAN_POINT('',(0.,5.85,18.15));
#591=CARTESIAN_POINT('',(0.,5.85,18.15));
#592=CARTESIAN_POINT('',(0.,6.,18.));
#593=CARTESIAN_POINT('',(0.,-1.871083234756E-14,18.15));
#594=CARTESIAN_POINT('',(0.,-5.85,18.15));
#595=CARTESIAN_POINT('',(0.,-5.85,18.15));
#596=CARTESIAN_POINT('',(0.,-6.,18.));
#597=CARTESIAN_POINT('',(0.,-1.871083234756E-14,18.));
#598=CARTESIAN_POINT('',(0.,-1.871083234756E-14,18.075));
#599=CARTESIAN_POINT('',(0.,-1.871083234756E-14,18.));
#600=CARTESIAN_POINT('',(-150.,150.,18.));
#601=CARTESIAN_POINT('',(0.,-1.871083234756E-14,18.15));
#602=CARTESIAN_POINT('',(0.,-1.871083234756E-14,18.075));
#603=CARTESIAN_POINT('',(0.,-5.85,59.85));
#604=CARTESIAN_POINT('',(0.,-5.85,59.85));
#605=CARTESIAN_POINT('',(0.,-1.102311206591E-14,59.85));
#606=CARTESIAN_POINT('',(0.,5.85,59.85));
#607=CARTESIAN_POINT('',(0.,5.85,59.85));
#608=CARTESIAN_POINT('',(0.,0.,126.));
#609=CARTESIAN_POINT('',(0.,-1.102311206591E-14,59.85));
#610=CARTESIAN_POINT('',(0.,0.,126.));
#611=CARTESIAN_POINT('',(0.,-1.102311206591E-14,60.));
#612=CARTESIAN_POINT('',(0.,-6.,60.));
#613=CARTESIAN_POINT('',(0.,6.,60.));
#614=CARTESIAN_POINT('',(0.,-6.,60.));
#615=CARTESIAN_POINT('',(0.,6.,60.));
#616=CARTESIAN_POINT('',(0.,-1.102311206591E-14,59.925));
#617=CARTESIAN_POINT('',(0.,-1.102311206591E-14,60.));
#618=CARTESIAN_POINT('',(0.,-1.102311206591E-14,59.925));
#619=CARTESIAN_POINT('',(0.,-6.,119.5));
#620=CARTESIAN_POINT('',(0.,-6.,119.5));
#621=CARTESIAN_POINT('',(0.,0.,119.5));
#622=CARTESIAN_POINT('',(0.,6.,119.5));
#623=CARTESIAN_POINT('',(0.,6.,119.5));
#624=CARTESIAN_POINT('',(0.,0.,126.));
#625=CARTESIAN_POINT('',(0.,0.,119.5));
#626=CARTESIAN_POINT('',(0.,0.,126.));
#627=CARTESIAN_POINT('',(0.,0.,120.));
#628=CARTESIAN_POINT('',(0.,5.5,120.));
#629=CARTESIAN_POINT('',(0.,-5.5,120.));
#630=CARTESIAN_POINT('',(0.,-5.5,120.));
#631=CARTESIAN_POINT('',(0.,5.5,120.));
#632=CARTESIAN_POINT('',(0.,0.,119.75));
#633=CARTESIAN_POINT('',(0.,0.,120.));
#634=CARTESIAN_POINT('',(0.,0.,119.75));
#635=CARTESIAN_POINT('',(0.,0.,120.));
#636=MECHANICAL_DESIGN_GEOMETRIC_PRESENTATION_REPRESENTATION('',(#318,#319,
#320,#321,#322,#323,#324,#325,#326,#327,#328,#329,#330,#331,#332,#333,#334,
#335),#637);
#637=(
GEOMETRIC_REPRESENTATION_CONTEXT(3)
GLOBAL_UNCERTAINTY_ASSIGNED_CONTEXT((#638))
GLOBAL_UNIT_ASSIGNED_CONTEXT((#644,#640,#639))
REPRESENTATION_CONTEXT('VFHVRBD1200R30N060','TOP_LEVEL_ASSEMBLY_PART')
);
#638=UNCERTAINTY_MEASURE_WITH_UNIT(LENGTH_MEASURE(0.0254),#644,
'DISTANCE_ACCURACY_VALUE','Maximum Tolerance applied to model');
#639=(
NAMED_UNIT(*)
SI_UNIT($,.STERADIAN.)
SOLID_ANGLE_UNIT()
);
#640=(
CONVERSION_BASED_UNIT('DEGREE',#642)
NAMED_UNIT(#641)
PLANE_ANGLE_UNIT()
);
#641=DIMENSIONAL_EXPONENTS(0.,0.,0.,0.,0.,0.,0.);
#642=PLANE_ANGLE_MEASURE_WITH_UNIT(PLANE_ANGLE_MEASURE(0.0174532925),#643);
#643=(
NAMED_UNIT(*)
PLANE_ANGLE_UNIT()
SI_UNIT($,.RADIAN.)
);
#644=(
LENGTH_UNIT()
NAMED_UNIT(*)
SI_UNIT(.MILLI.,.METRE.)
);
ENDSEC;
END-ISO-10303-21;
