ISO-10303-21;
HEADER;
/* Generated by software containing ST-Developer
 * from STEP Tools, Inc. (www.steptools.com) 
 */
/* OPTION: using custom schema-name function */

FILE_DESCRIPTION(
/* description */ (''),
/* implementation_level */ '2;1');

FILE_NAME(
/* name */ 'MP2MBR0090.stp',
/* time_stamp */ '2023-03-17T09:20:05+09:00',
/* author */ (''),
/* organization */ (''),
/* preprocessor_version */ 'ST-DEVELOPER v16',
/* originating_system */ 'SIEMENS PLM Software NX 10.0',
/* authorisation */ '');

FILE_SCHEMA (('AUTOMOTIVE_DESIGN { 1 0 10303 214 3 1 1 1 }'));
ENDSEC;

DATA;
#10=CONSTRUCTIVE_GEOMETRY_REPRESENTATION_RELATIONSHIP(
'supplemental geometry','',#26,#11);
#11=CONSTRUCTIVE_GEOMETRY_REPRESENTATION('supplemental geometry',(#315,
#316,#317,#318,#319,#320,#321,#322,#323,#324),#528);
#12=GEOMETRICALLY_BOUNDED_WIREFRAME_SHAPE_REPRESENTATION(
'MP2MBR0090-None',(#27),#528);
#13=SHAPE_REPRESENTATION_RELATIONSHIP('None',
'relationship between MP2MBR0090-None and MP2MBR0090-None',#26,#15);
#14=SHAPE_REPRESENTATION_RELATIONSHIP('None',
'relationship between MP2MBR0090-None and MP2MBR0090-None',#26,#12);
#15=ADVANCED_BREP_SHAPE_REPRESENTATION('MP2MBR0090-None',(#42,#43),#528);
#16=SHAPE_DEFINITION_REPRESENTATION(#17,#26);
#17=PRODUCT_DEFINITION_SHAPE('','SHAPE FOR MP2MBR0090_ASM.',#18);
#18=PRODUCT_DEFINITION('part definition','',#20,#19);
#19=PRODUCT_DEFINITION_CONTEXT('part definition',#25,'design');
#20=PRODUCT_DEFINITION_FORMATION_WITH_SPECIFIED_SOURCE(' ',' ',#22,
 .NOT_KNOWN.);
#21=PRODUCT_RELATED_PRODUCT_CATEGORY('part','',(#22));
#22=PRODUCT('MP2MBR0090_ASM','MP2MBR0090_ASM','NOT SPECIFIED',(#23));
#23=PRODUCT_CONTEXT('',#25,'mechanical');
#24=APPLICATION_PROTOCOL_DEFINITION('international standard',
'automotive_design',2010,#25);
#25=APPLICATION_CONTEXT(
'core data for automotive mechanical design processes');
#26=SHAPE_REPRESENTATION('MP2MBR0090-None',(#313),#528);
#27=GEOMETRIC_CURVE_SET('None',(#456,#240,#241,#242,#243));
#28=CONICAL_SURFACE('',#344,1.45,15.);
#29=CONICAL_SURFACE('',#346,1.45,15.);
#30=CONICAL_SURFACE('',#352,1.75,45.);
#31=CONICAL_SURFACE('',#354,1.75,45.);
#32=SURFACE_STYLE_USAGE(.BOTH.,#34);
#33=SURFACE_STYLE_USAGE(.BOTH.,#35);
#34=SURFACE_SIDE_STYLE('',(#36));
#35=SURFACE_SIDE_STYLE('',(#37));
#36=SURFACE_STYLE_FILL_AREA(#38);
#37=SURFACE_STYLE_FILL_AREA(#39);
#38=FILL_AREA_STYLE('',(#40));
#39=FILL_AREA_STYLE('',(#41));
#40=FILL_AREA_STYLE_COLOUR('',#311);
#41=FILL_AREA_STYLE_COLOUR('',#312);
#42=MANIFOLD_SOLID_BREP('CUT',#44);
#43=MANIFOLD_SOLID_BREP('NOCUT',#45);
#44=CLOSED_SHELL('',(#51,#52,#53,#54,#55));
#45=CLOSED_SHELL('',(#56,#57,#58,#59,#60,#61,#62,#63,#64,#65));
#46=SPHERICAL_SURFACE('',#334,0.9);
#47=SPHERICAL_SURFACE('',#335,0.9);
#48=PLANE('',#329);
#49=PLANE('',#340);
#50=PLANE('',#355);
#51=ADVANCED_FACE('',(#72),#66,.T.);
#52=ADVANCED_FACE('',(#73),#48,.F.);
#53=ADVANCED_FACE('',(#74),#67,.T.);
#54=ADVANCED_FACE('',(#75),#46,.T.);
#55=ADVANCED_FACE('',(#76),#47,.T.);
#56=ADVANCED_FACE('',(#77),#68,.T.);
#57=ADVANCED_FACE('',(#78),#49,.F.);
#58=ADVANCED_FACE('',(#79),#69,.T.);
#59=ADVANCED_FACE('',(#80),#28,.T.);
#60=ADVANCED_FACE('',(#81),#29,.T.);
#61=ADVANCED_FACE('',(#82),#70,.T.);
#62=ADVANCED_FACE('',(#83),#71,.T.);
#63=ADVANCED_FACE('',(#84),#30,.T.);
#64=ADVANCED_FACE('',(#85),#31,.T.);
#65=ADVANCED_FACE('',(#86),#50,.F.);
#66=CYLINDRICAL_SURFACE('',#327,0.9);
#67=CYLINDRICAL_SURFACE('',#331,0.9);
#68=CYLINDRICAL_SURFACE('',#338,0.9);
#69=CYLINDRICAL_SURFACE('',#342,0.9);
#70=CYLINDRICAL_SURFACE('',#348,2.);
#71=CYLINDRICAL_SURFACE('',#350,2.);
#72=FACE_OUTER_BOUND('',#87,.T.);
#73=FACE_OUTER_BOUND('',#88,.T.);
#74=FACE_OUTER_BOUND('',#89,.T.);
#75=FACE_OUTER_BOUND('',#90,.T.);
#76=FACE_OUTER_BOUND('',#91,.T.);
#77=FACE_OUTER_BOUND('',#92,.T.);
#78=FACE_OUTER_BOUND('',#93,.T.);
#79=FACE_OUTER_BOUND('',#94,.T.);
#80=FACE_OUTER_BOUND('',#95,.T.);
#81=FACE_OUTER_BOUND('',#96,.T.);
#82=FACE_OUTER_BOUND('',#97,.T.);
#83=FACE_OUTER_BOUND('',#98,.T.);
#84=FACE_OUTER_BOUND('',#99,.T.);
#85=FACE_OUTER_BOUND('',#100,.T.);
#86=FACE_OUTER_BOUND('',#101,.T.);
#87=EDGE_LOOP('',(#102,#103,#104,#105));
#88=EDGE_LOOP('',(#106,#107));
#89=EDGE_LOOP('',(#108,#109,#110,#111));
#90=EDGE_LOOP('',(#112,#113,#114));
#91=EDGE_LOOP('',(#115,#116,#117));
#92=EDGE_LOOP('',(#118,#119,#120,#121));
#93=EDGE_LOOP('',(#122,#123));
#94=EDGE_LOOP('',(#124,#125,#126,#127));
#95=EDGE_LOOP('',(#128,#129,#130,#131));
#96=EDGE_LOOP('',(#132,#133,#134,#135));
#97=EDGE_LOOP('',(#136,#137,#138,#139));
#98=EDGE_LOOP('',(#140,#141,#142,#143));
#99=EDGE_LOOP('',(#144,#145,#146,#147));
#100=EDGE_LOOP('',(#148,#149,#150,#151));
#101=EDGE_LOOP('',(#152,#153));
#102=ORIENTED_EDGE('',*,*,#169,.T.);
#103=ORIENTED_EDGE('',*,*,#170,.T.);
#104=ORIENTED_EDGE('',*,*,#171,.F.);
#105=ORIENTED_EDGE('',*,*,#172,.T.);
#106=ORIENTED_EDGE('',*,*,#173,.F.);
#107=ORIENTED_EDGE('',*,*,#172,.F.);
#108=ORIENTED_EDGE('',*,*,#171,.T.);
#109=ORIENTED_EDGE('',*,*,#174,.T.);
#110=ORIENTED_EDGE('',*,*,#169,.F.);
#111=ORIENTED_EDGE('',*,*,#173,.T.);
#112=ORIENTED_EDGE('',*,*,#175,.T.);
#113=ORIENTED_EDGE('',*,*,#174,.F.);
#114=ORIENTED_EDGE('',*,*,#176,.F.);
#115=ORIENTED_EDGE('',*,*,#170,.F.);
#116=ORIENTED_EDGE('',*,*,#175,.F.);
#117=ORIENTED_EDGE('',*,*,#176,.T.);
#118=ORIENTED_EDGE('',*,*,#177,.F.);
#119=ORIENTED_EDGE('',*,*,#178,.T.);
#120=ORIENTED_EDGE('',*,*,#179,.T.);
#121=ORIENTED_EDGE('',*,*,#180,.T.);
#122=ORIENTED_EDGE('',*,*,#181,.F.);
#123=ORIENTED_EDGE('',*,*,#180,.F.);
#124=ORIENTED_EDGE('',*,*,#179,.F.);
#125=ORIENTED_EDGE('',*,*,#182,.T.);
#126=ORIENTED_EDGE('',*,*,#177,.T.);
#127=ORIENTED_EDGE('',*,*,#181,.T.);
#128=ORIENTED_EDGE('',*,*,#182,.F.);
#129=ORIENTED_EDGE('',*,*,#183,.T.);
#130=ORIENTED_EDGE('',*,*,#184,.F.);
#131=ORIENTED_EDGE('',*,*,#185,.F.);
#132=ORIENTED_EDGE('',*,*,#186,.F.);
#133=ORIENTED_EDGE('',*,*,#183,.F.);
#134=ORIENTED_EDGE('',*,*,#178,.F.);
#135=ORIENTED_EDGE('',*,*,#185,.T.);
#136=ORIENTED_EDGE('',*,*,#187,.T.);
#137=ORIENTED_EDGE('',*,*,#188,.T.);
#138=ORIENTED_EDGE('',*,*,#186,.T.);
#139=ORIENTED_EDGE('',*,*,#189,.F.);
#140=ORIENTED_EDGE('',*,*,#184,.T.);
#141=ORIENTED_EDGE('',*,*,#188,.F.);
#142=ORIENTED_EDGE('',*,*,#190,.T.);
#143=ORIENTED_EDGE('',*,*,#189,.T.);
#144=ORIENTED_EDGE('',*,*,#190,.F.);
#145=ORIENTED_EDGE('',*,*,#191,.T.);
#146=ORIENTED_EDGE('',*,*,#192,.T.);
#147=ORIENTED_EDGE('',*,*,#193,.F.);
#148=ORIENTED_EDGE('',*,*,#194,.T.);
#149=ORIENTED_EDGE('',*,*,#191,.F.);
#150=ORIENTED_EDGE('',*,*,#187,.F.);
#151=ORIENTED_EDGE('',*,*,#193,.T.);
#152=ORIENTED_EDGE('',*,*,#194,.F.);
#153=ORIENTED_EDGE('',*,*,#192,.F.);
#154=VERTEX_POINT('',#472);
#155=VERTEX_POINT('',#473);
#156=VERTEX_POINT('',#475);
#157=VERTEX_POINT('',#477);
#158=VERTEX_POINT('',#485);
#159=VERTEX_POINT('',#490);
#160=VERTEX_POINT('',#491);
#161=VERTEX_POINT('',#493);
#162=VERTEX_POINT('',#495);
#163=VERTEX_POINT('',#503);
#164=VERTEX_POINT('',#505);
#165=VERTEX_POINT('',#511);
#166=VERTEX_POINT('',#512);
#167=VERTEX_POINT('',#519);
#168=VERTEX_POINT('',#521);
#169=EDGE_CURVE('',#154,#155,#247,.T.);
#170=EDGE_CURVE('',#155,#156,#196,.T.);
#171=EDGE_CURVE('',#157,#156,#248,.T.);
#172=EDGE_CURVE('',#157,#154,#197,.T.);
#173=EDGE_CURVE('',#154,#157,#198,.T.);
#174=EDGE_CURVE('',#156,#155,#199,.T.);
#175=EDGE_CURVE('',#158,#155,#200,.T.);
#176=EDGE_CURVE('',#158,#156,#201,.T.);
#177=EDGE_CURVE('',#159,#160,#249,.T.);
#178=EDGE_CURVE('',#159,#161,#202,.T.);
#179=EDGE_CURVE('',#161,#162,#250,.T.);
#180=EDGE_CURVE('',#162,#160,#203,.T.);
#181=EDGE_CURVE('',#160,#162,#204,.T.);
#182=EDGE_CURVE('',#161,#159,#205,.T.);
#183=EDGE_CURVE('',#161,#163,#251,.T.);
#184=EDGE_CURVE('',#164,#163,#206,.T.);
#185=EDGE_CURVE('',#159,#164,#252,.T.);
#186=EDGE_CURVE('',#163,#164,#207,.T.);
#187=EDGE_CURVE('',#165,#166,#208,.T.);
#188=EDGE_CURVE('',#166,#163,#253,.T.);
#189=EDGE_CURVE('',#165,#164,#254,.T.);
#190=EDGE_CURVE('',#166,#165,#209,.T.);
#191=EDGE_CURVE('',#166,#167,#255,.T.);
#192=EDGE_CURVE('',#167,#168,#210,.T.);
#193=EDGE_CURVE('',#165,#168,#256,.T.);
#194=EDGE_CURVE('',#168,#167,#211,.T.);
#195=CIRCLE('',#314,0.9);
#196=CIRCLE('',#325,0.9);
#197=CIRCLE('',#326,0.9);
#198=CIRCLE('',#328,0.9);
#199=CIRCLE('',#330,0.9);
#200=CIRCLE('',#332,0.9);
#201=CIRCLE('',#333,0.9);
#202=CIRCLE('',#336,0.9);
#203=CIRCLE('',#337,0.9);
#204=CIRCLE('',#339,0.9);
#205=CIRCLE('',#341,0.9);
#206=CIRCLE('',#343,2.);
#207=CIRCLE('',#345,2.);
#208=CIRCLE('',#347,2.);
#209=CIRCLE('',#349,2.);
#210=CIRCLE('',#351,1.5);
#211=CIRCLE('',#353,1.5);
#212=CURVE_STYLE('',#226,POSITIVE_LENGTH_MEASURE(0.18),#308);
#213=CURVE_STYLE('',#227,POSITIVE_LENGTH_MEASURE(0.18),#308);
#214=CURVE_STYLE('',#228,POSITIVE_LENGTH_MEASURE(0.18),#308);
#215=CURVE_STYLE('',#229,POSITIVE_LENGTH_MEASURE(0.18),#308);
#216=CURVE_STYLE('',#230,POSITIVE_LENGTH_MEASURE(0.13),#309);
#217=CURVE_STYLE('',#231,POSITIVE_LENGTH_MEASURE(0.13),#309);
#218=CURVE_STYLE('',#232,POSITIVE_LENGTH_MEASURE(0.13),#310);
#219=CURVE_STYLE('',#233,POSITIVE_LENGTH_MEASURE(0.13),#310);
#220=CURVE_STYLE('',#234,POSITIVE_LENGTH_MEASURE(0.13),#309);
#221=CURVE_STYLE('',#235,POSITIVE_LENGTH_MEASURE(0.13),#309);
#222=CURVE_STYLE('',#236,POSITIVE_LENGTH_MEASURE(0.13),#310);
#223=CURVE_STYLE('',#237,POSITIVE_LENGTH_MEASURE(0.13),#309);
#224=CURVE_STYLE('',#238,POSITIVE_LENGTH_MEASURE(0.13),#309);
#225=CURVE_STYLE('',#239,POSITIVE_LENGTH_MEASURE(0.13),#309);
#226=DRAUGHTING_PRE_DEFINED_CURVE_FONT('continuous');
#227=DRAUGHTING_PRE_DEFINED_CURVE_FONT('continuous');
#228=DRAUGHTING_PRE_DEFINED_CURVE_FONT('continuous');
#229=DRAUGHTING_PRE_DEFINED_CURVE_FONT('continuous');
#230=DRAUGHTING_PRE_DEFINED_CURVE_FONT('continuous');
#231=DRAUGHTING_PRE_DEFINED_CURVE_FONT('continuous');
#232=DRAUGHTING_PRE_DEFINED_CURVE_FONT('continuous');
#233=DRAUGHTING_PRE_DEFINED_CURVE_FONT('continuous');
#234=DRAUGHTING_PRE_DEFINED_CURVE_FONT('continuous');
#235=DRAUGHTING_PRE_DEFINED_CURVE_FONT('continuous');
#236=DRAUGHTING_PRE_DEFINED_CURVE_FONT('continuous');
#237=DRAUGHTING_PRE_DEFINED_CURVE_FONT('continuous');
#238=DRAUGHTING_PRE_DEFINED_CURVE_FONT('continuous');
#239=DRAUGHTING_PRE_DEFINED_CURVE_FONT('continuous');
#240=TRIMMED_CURVE('',#244,(PARAMETER_VALUE(0.)),(PARAMETER_VALUE(1.)),
 .T.,.PARAMETER.);
#241=TRIMMED_CURVE('',#245,(PARAMETER_VALUE(0.)),(PARAMETER_VALUE(1.)),
 .T.,.PARAMETER.);
#242=TRIMMED_CURVE('',#246,(PARAMETER_VALUE(0.)),(PARAMETER_VALUE(1.)),
 .T.,.PARAMETER.);
#243=TRIMMED_CURVE('',#195,(PARAMETER_VALUE(0.)),(PARAMETER_VALUE(90.)),
 .T.,.PARAMETER.);
#244=LINE('',#457,#257);
#245=LINE('',#458,#258);
#246=LINE('',#459,#259);
#247=LINE('',#471,#260);
#248=LINE('',#476,#261);
#249=LINE('',#489,#262);
#250=LINE('',#494,#263);
#251=LINE('',#502,#264);
#252=LINE('',#506,#265);
#253=LINE('',#513,#266);
#254=LINE('',#514,#267);
#255=LINE('',#518,#268);
#256=LINE('',#522,#269);
#257=VECTOR('',#358,4.1);
#258=VECTOR('',#359,0.9);
#259=VECTOR('',#360,5.);
#260=VECTOR('',#383,1.);
#261=VECTOR('',#386,1.);
#262=VECTOR('',#407,1.);
#263=VECTOR('',#410,1.);
#264=VECTOR('',#423,1.);
#265=VECTOR('',#426,1.);
#266=VECTOR('',#435,1.);
#267=VECTOR('',#436,1.);
#268=VECTOR('',#443,1.);
#269=VECTOR('',#446,1.);
#270=PRESENTATION_LAYER_ASSIGNMENT('1','Layer 1',(#456,#240,#241,#242,#243,
#315,#316,#319,#320,#321,#322,#323,#324,#42,#43));
#271=PRESENTATION_LAYER_ASSIGNMENT('2','Layer 2',(#317,#318));
#272=STYLED_ITEM('',(#289),#456);
#273=STYLED_ITEM('',(#290),#240);
#274=STYLED_ITEM('',(#291),#241);
#275=STYLED_ITEM('',(#292),#242);
#276=STYLED_ITEM('',(#293),#243);
#277=STYLED_ITEM('',(#294),#315);
#278=STYLED_ITEM('',(#295),#316);
#279=STYLED_ITEM('',(#296),#317);
#280=STYLED_ITEM('',(#297),#318);
#281=STYLED_ITEM('',(#298),#319);
#282=STYLED_ITEM('',(#299),#320);
#283=STYLED_ITEM('',(#300),#321);
#284=STYLED_ITEM('',(#301),#322);
#285=STYLED_ITEM('',(#302),#323);
#286=STYLED_ITEM('',(#303),#324);
#287=STYLED_ITEM('',(#304),#42);
#288=STYLED_ITEM('',(#305),#43);
#289=PRESENTATION_STYLE_ASSIGNMENT((#306));
#290=PRESENTATION_STYLE_ASSIGNMENT((#212));
#291=PRESENTATION_STYLE_ASSIGNMENT((#213));
#292=PRESENTATION_STYLE_ASSIGNMENT((#214));
#293=PRESENTATION_STYLE_ASSIGNMENT((#215));
#294=PRESENTATION_STYLE_ASSIGNMENT((#216));
#295=PRESENTATION_STYLE_ASSIGNMENT((#217));
#296=PRESENTATION_STYLE_ASSIGNMENT((#218));
#297=PRESENTATION_STYLE_ASSIGNMENT((#219));
#298=PRESENTATION_STYLE_ASSIGNMENT((#220));
#299=PRESENTATION_STYLE_ASSIGNMENT((#221));
#300=PRESENTATION_STYLE_ASSIGNMENT((#222));
#301=PRESENTATION_STYLE_ASSIGNMENT((#223));
#302=PRESENTATION_STYLE_ASSIGNMENT((#224));
#303=PRESENTATION_STYLE_ASSIGNMENT((#225));
#304=PRESENTATION_STYLE_ASSIGNMENT((#32));
#305=PRESENTATION_STYLE_ASSIGNMENT((#33));
#306=POINT_STYLE('',#307,POSITIVE_LENGTH_MEASURE(3.),#308);
#307=PRE_DEFINED_POINT_MARKER_SYMBOL('plus');
#308=COLOUR_RGB('Medium Royal',0.2,0.4,0.8);
#309=COLOUR_RGB('Strong Stone',0.576470588235294,0.54508278019379,0.392156862745098);
#310=COLOUR_RGB('Medium Umber',0.372533760585946,0.313725490196078,0.270572976272221);
#311=COLOUR_RGB('cutting part',0.8,0.8,0.8);
#312=COLOUR_RGB('non-cutting part and shank',0.501960784313725,0.501960784313725,
0.501960784313725);
#313=AXIS2_PLACEMENT_3D('',#455,#356,#357);
#314=AXIS2_PLACEMENT_3D('',#460,#361,#362);
#315=AXIS2_PLACEMENT_3D('',#461,#363,#364);
#316=AXIS2_PLACEMENT_3D('',#462,#365,#366);
#317=AXIS2_PLACEMENT_3D('CIP',#463,#367,#368);
#318=AXIS2_PLACEMENT_3D('PCS',#464,#369,#370);
#319=AXIS2_PLACEMENT_3D('MCS',#465,#371,#372);
#320=AXIS2_PLACEMENT_3D('',#466,#373,#374);
#321=AXIS2_PLACEMENT_3D('STEP_TEMP_EM1_1',#467,#375,#376);
#322=AXIS2_PLACEMENT_3D('',#468,#377,#378);
#323=AXIS2_PLACEMENT_3D('',#469,#379,#380);
#324=AXIS2_PLACEMENT_3D('',#470,#381,#382);
#325=AXIS2_PLACEMENT_3D('',#474,#384,#385);
#326=AXIS2_PLACEMENT_3D('',#478,#387,#388);
#327=AXIS2_PLACEMENT_3D('',#479,#389,#390);
#328=AXIS2_PLACEMENT_3D('',#480,#391,#392);
#329=AXIS2_PLACEMENT_3D('',#481,#393,#394);
#330=AXIS2_PLACEMENT_3D('',#482,#395,#396);
#331=AXIS2_PLACEMENT_3D('',#483,#397,#398);
#332=AXIS2_PLACEMENT_3D('',#484,#399,#400);
#333=AXIS2_PLACEMENT_3D('',#486,#401,#402);
#334=AXIS2_PLACEMENT_3D('',#487,#403,#404);
#335=AXIS2_PLACEMENT_3D('',#488,#405,#406);
#336=AXIS2_PLACEMENT_3D('',#492,#408,#409);
#337=AXIS2_PLACEMENT_3D('',#496,#411,#412);
#338=AXIS2_PLACEMENT_3D('',#497,#413,#414);
#339=AXIS2_PLACEMENT_3D('',#498,#415,#416);
#340=AXIS2_PLACEMENT_3D('',#499,#417,#418);
#341=AXIS2_PLACEMENT_3D('',#500,#419,#420);
#342=AXIS2_PLACEMENT_3D('',#501,#421,#422);
#343=AXIS2_PLACEMENT_3D('',#504,#424,#425);
#344=AXIS2_PLACEMENT_3D('',#507,#427,#428);
#345=AXIS2_PLACEMENT_3D('',#508,#429,#430);
#346=AXIS2_PLACEMENT_3D('',#509,#431,#432);
#347=AXIS2_PLACEMENT_3D('',#510,#433,#434);
#348=AXIS2_PLACEMENT_3D('',#515,#437,#438);
#349=AXIS2_PLACEMENT_3D('',#516,#439,#440);
#350=AXIS2_PLACEMENT_3D('',#517,#441,#442);
#351=AXIS2_PLACEMENT_3D('',#520,#444,#445);
#352=AXIS2_PLACEMENT_3D('',#523,#447,#448);
#353=AXIS2_PLACEMENT_3D('',#524,#449,#450);
#354=AXIS2_PLACEMENT_3D('',#525,#451,#452);
#355=AXIS2_PLACEMENT_3D('',#526,#453,#454);
#356=DIRECTION('',(0.,0.,1.));
#357=DIRECTION('',(1.,0.,0.));
#358=DIRECTION('',(0.,0.,1.));
#359=DIRECTION('',(1.,0.,0.));
#360=DIRECTION('',(0.,0.,-1.));
#361=DIRECTION('',(0.,1.,0.));
#362=DIRECTION('',(0.,0.,-1.));
#363=DIRECTION('',(0.,0.,1.));
#364=DIRECTION('',(1.,0.,0.));
#365=DIRECTION('',(0.,0.,1.));
#366=DIRECTION('',(1.,0.,0.));
#367=DIRECTION('',(0.,0.,1.));
#368=DIRECTION('',(1.,0.,0.));
#369=DIRECTION('',(0.,0.,1.));
#370=DIRECTION('',(1.,0.,0.));
#371=DIRECTION('',(0.,0.,1.));
#372=DIRECTION('',(1.,0.,0.));
#373=DIRECTION('',(0.,0.,1.));
#374=DIRECTION('',(1.,0.,0.));
#375=DIRECTION('',(0.,0.,1.));
#376=DIRECTION('',(1.,0.,0.));
#377=DIRECTION('',(0.,0.,1.));
#378=DIRECTION('',(1.,0.,0.));
#379=DIRECTION('',(0.,0.,1.));
#380=DIRECTION('',(1.,0.,0.));
#381=DIRECTION('',(0.,0.,1.));
#382=DIRECTION('',(1.,0.,0.));
#383=DIRECTION('',(0.,0.,-1.));
#384=DIRECTION('',(0.,0.,1.));
#385=DIRECTION('',(0.,-1.,0.));
#386=DIRECTION('',(0.,0.,-1.));
#387=DIRECTION('',(0.,0.,-1.));
#388=DIRECTION('',(0.,1.,0.));
#389=DIRECTION('',(0.,0.,-1.));
#390=DIRECTION('',(0.,1.,0.));
#391=DIRECTION('',(0.,0.,-1.));
#392=DIRECTION('',(0.,-1.,0.));
#393=DIRECTION('',(0.,0.,-1.));
#394=DIRECTION('',(1.,0.,0.));
#395=DIRECTION('',(0.,0.,1.));
#396=DIRECTION('',(0.,1.,0.));
#397=DIRECTION('',(0.,0.,-1.));
#398=DIRECTION('',(0.,1.,0.));
#399=DIRECTION('',(-1.,0.,0.));
#400=DIRECTION('',(0.,-1.,0.));
#401=DIRECTION('',(1.,0.,0.));
#402=DIRECTION('',(0.,1.,0.));
#403=DIRECTION('',(0.,6.12323399573677E-17,-1.));
#404=DIRECTION('',(0.,1.,0.));
#405=DIRECTION('',(0.,6.12323399573677E-17,-1.));
#406=DIRECTION('',(0.,1.,0.));
#407=DIRECTION('',(0.,4.163336342344E-14,-1.));
#408=DIRECTION('',(0.,0.,-1.));
#409=DIRECTION('',(0.,1.,0.));
#410=DIRECTION('',(0.,-4.163336342344E-14,-1.));
#411=DIRECTION('',(0.,0.,1.));
#412=DIRECTION('',(0.,-1.,0.));
#413=DIRECTION('',(0.,0.,-1.));
#414=DIRECTION('',(0.,1.,0.));
#415=DIRECTION('',(0.,0.,1.));
#416=DIRECTION('',(0.,1.,0.));
#417=DIRECTION('',(0.,0.,1.));
#418=DIRECTION('',(-1.,0.,0.));
#419=DIRECTION('',(0.,0.,-1.));
#420=DIRECTION('',(0.,-1.,0.));
#421=DIRECTION('',(0.,0.,-1.));
#422=DIRECTION('',(0.,1.,0.));
#423=DIRECTION('',(0.,-0.258819045102493,0.965925826289076));
#424=DIRECTION('',(0.,0.,1.));
#425=DIRECTION('',(0.,1.,0.));
#426=DIRECTION('',(0.,0.258819045102493,0.965925826289076));
#427=DIRECTION('',(0.,0.,1.));
#428=DIRECTION('',(0.,-1.,-3.57377288505896E-16));
#429=DIRECTION('',(0.,0.,1.));
#430=DIRECTION('',(0.,-1.,0.));
#431=DIRECTION('',(0.,0.,1.));
#432=DIRECTION('',(0.,-1.,-3.57377288505896E-16));
#433=DIRECTION('',(0.,0.,-1.));
#434=DIRECTION('',(0.,1.,0.));
#435=DIRECTION('',(0.,0.,-1.));
#436=DIRECTION('',(0.,0.,-1.));
#437=DIRECTION('',(0.,0.,-1.));
#438=DIRECTION('',(0.,1.,0.));
#439=DIRECTION('',(0.,0.,-1.));
#440=DIRECTION('',(0.,-1.,0.));
#441=DIRECTION('',(0.,0.,-1.));
#442=DIRECTION('',(0.,1.,0.));
#443=DIRECTION('',(0.,0.707106781186547,0.707106781186547));
#444=DIRECTION('',(0.,0.,-1.));
#445=DIRECTION('',(0.,-1.,0.));
#446=DIRECTION('',(0.,-0.707106781186547,0.707106781186547));
#447=DIRECTION('',(0.,0.,-1.));
#448=DIRECTION('',(0.,1.,-4.15606323168888E-17));
#449=DIRECTION('',(0.,0.,-1.));
#450=DIRECTION('',(0.,1.,0.));
#451=DIRECTION('',(0.,0.,-1.));
#452=DIRECTION('',(0.,1.,-4.15606323168888E-17));
#453=DIRECTION('',(0.,0.,-1.));
#454=DIRECTION('',(0.,1.,0.));
#455=CARTESIAN_POINT('',(0.,0.,0.));
#456=CARTESIAN_POINT('CRP',(-0.9,0.,0.));
#457=CARTESIAN_POINT('',(-0.9,0.,0.9));
#458=CARTESIAN_POINT('',(-0.9,0.,5.));
#459=CARTESIAN_POINT('',(0.,0.,5.));
#460=CARTESIAN_POINT('',(0.,0.,0.9));
#461=CARTESIAN_POINT('',(0.,0.,0.));
#462=CARTESIAN_POINT('',(0.,0.,0.));
#463=CARTESIAN_POINT('',(0.,0.,0.));
#464=CARTESIAN_POINT('',(0.,0.,45.));
#465=CARTESIAN_POINT('',(0.,0.,27.));
#466=CARTESIAN_POINT('',(0.,0.,0.));
#467=CARTESIAN_POINT('',(0.,0.,0.));
#468=CARTESIAN_POINT('',(0.,0.,0.));
#469=CARTESIAN_POINT('',(0.,0.,0.));
#470=CARTESIAN_POINT('',(0.,0.,0.));
#471=CARTESIAN_POINT('',(0.,-0.9,5.));
#472=CARTESIAN_POINT('',(0.,-0.9,5.));
#473=CARTESIAN_POINT('',(0.,-0.9,0.9));
#474=CARTESIAN_POINT('',(0.,0.,0.9));
#475=CARTESIAN_POINT('',(0.,0.9,0.9));
#476=CARTESIAN_POINT('',(0.,0.9,5.));
#477=CARTESIAN_POINT('',(0.,0.9,5.));
#478=CARTESIAN_POINT('',(0.,0.,5.));
#479=CARTESIAN_POINT('',(0.,0.,47.25));
#480=CARTESIAN_POINT('',(0.,0.,5.));
#481=CARTESIAN_POINT('',(150.,150.,5.));
#482=CARTESIAN_POINT('',(0.,0.,0.9));
#483=CARTESIAN_POINT('',(0.,0.,47.25));
#484=CARTESIAN_POINT('',(0.,0.,0.9));
#485=CARTESIAN_POINT('',(0.,0.,0.));
#486=CARTESIAN_POINT('',(0.,0.,0.9));
#487=CARTESIAN_POINT('',(0.,0.,0.9));
#488=CARTESIAN_POINT('',(0.,0.,0.9));
#489=CARTESIAN_POINT('',(0.,0.9,5.4));
#490=CARTESIAN_POINT('',(0.,0.9,5.4));
#491=CARTESIAN_POINT('',(0.,0.9,5.));
#492=CARTESIAN_POINT('',(0.,0.,5.4));
#493=CARTESIAN_POINT('',(0.,-0.9,5.4));
#494=CARTESIAN_POINT('',(0.,-0.9,5.4));
#495=CARTESIAN_POINT('',(0.,-0.9,5.));
#496=CARTESIAN_POINT('',(0.,0.,5.));
#497=CARTESIAN_POINT('',(0.,0.,47.25));
#498=CARTESIAN_POINT('',(0.,0.,5.));
#499=CARTESIAN_POINT('',(-150.,150.,5.));
#500=CARTESIAN_POINT('',(0.,0.,5.4));
#501=CARTESIAN_POINT('',(0.,0.,47.25));
#502=CARTESIAN_POINT('',(0.,-2.,9.505255888326));
#503=CARTESIAN_POINT('',(0.,-2.,9.505255888326));
#504=CARTESIAN_POINT('',(0.,0.,9.505255888326));
#505=CARTESIAN_POINT('',(0.,2.,9.505255888326));
#506=CARTESIAN_POINT('',(0.,2.,9.505255888326));
#507=CARTESIAN_POINT('',(0.,0.,7.452627944163));
#508=CARTESIAN_POINT('',(0.,0.,9.505255888326));
#509=CARTESIAN_POINT('',(0.,0.,7.452627944163));
#510=CARTESIAN_POINT('',(0.,0.,44.5));
#511=CARTESIAN_POINT('',(0.,2.,44.5));
#512=CARTESIAN_POINT('',(0.,-2.,44.5));
#513=CARTESIAN_POINT('',(0.,-2.,44.5));
#514=CARTESIAN_POINT('',(0.,2.,44.5));
#515=CARTESIAN_POINT('',(0.,0.,47.25));
#516=CARTESIAN_POINT('',(0.,0.,44.5));
#517=CARTESIAN_POINT('',(0.,0.,47.25));
#518=CARTESIAN_POINT('',(0.,-1.5,45.));
#519=CARTESIAN_POINT('',(0.,-1.5,45.));
#520=CARTESIAN_POINT('',(0.,0.,45.));
#521=CARTESIAN_POINT('',(0.,1.5,45.));
#522=CARTESIAN_POINT('',(0.,1.5,45.));
#523=CARTESIAN_POINT('',(0.,0.,44.75));
#524=CARTESIAN_POINT('',(0.,0.,45.));
#525=CARTESIAN_POINT('',(0.,0.,44.75));
#526=CARTESIAN_POINT('',(0.,0.,45.));
#527=MECHANICAL_DESIGN_GEOMETRIC_PRESENTATION_REPRESENTATION('',(#272,#273,
#274,#275,#276,#277,#278,#279,#280,#281,#282,#283,#284,#285,#286,#287,#288),
#528);
#528=(
GEOMETRIC_REPRESENTATION_CONTEXT(3)
GLOBAL_UNCERTAINTY_ASSIGNED_CONTEXT((#529))
GLOBAL_UNIT_ASSIGNED_CONTEXT((#535,#531,#530))
REPRESENTATION_CONTEXT('MP2MBR0090','TOP_LEVEL_ASSEMBLY_PART')
);
#529=UNCERTAINTY_MEASURE_WITH_UNIT(LENGTH_MEASURE(2.E-5),#535,
'DISTANCE_ACCURACY_VALUE','Maximum Tolerance applied to model');
#530=(
NAMED_UNIT(*)
SI_UNIT($,.STERADIAN.)
SOLID_ANGLE_UNIT()
);
#531=(
CONVERSION_BASED_UNIT('DEGREE',#533)
NAMED_UNIT(#532)
PLANE_ANGLE_UNIT()
);
#532=DIMENSIONAL_EXPONENTS(0.,0.,0.,0.,0.,0.,0.);
#533=PLANE_ANGLE_MEASURE_WITH_UNIT(PLANE_ANGLE_MEASURE(0.0174532925),#534);
#534=(
NAMED_UNIT(*)
PLANE_ANGLE_UNIT()
SI_UNIT($,.RADIAN.)
);
#535=(
LENGTH_UNIT()
NAMED_UNIT(*)
SI_UNIT(.MILLI.,.METRE.)
);
ENDSEC;
END-ISO-10303-21;
