ISO-10303-21;
HEADER;
/* Generated by software containing ST-Developer
 * from STEP Tools, Inc. (www.steptools.com) 
 */
/* OPTION: using custom schema-name function */

FILE_DESCRIPTION(
/* description */ (''),
/* implementation_level */ '2;1');

FILE_NAME(
/* name */ 'VFHVRBD010R02N015T09.stp',
/* time_stamp */ '2023-03-17T09:18:12+09:00',
/* author */ (''),
/* organization */ (''),
/* preprocessor_version */ 'ST-DEVELOPER v16',
/* originating_system */ 'SIEMENS PLM Software NX 10.0',
/* authorisation */ '');

FILE_SCHEMA (('AUTOMOTIVE_DESIGN { 1 0 10303 214 3 1 1 1 }'));
ENDSEC;

DATA;
#10=CONSTRUCTIVE_GEOMETRY_REPRESENTATION_RELATIONSHIP(
'supplemental geometry','',#26,#11);
#11=CONSTRUCTIVE_GEOMETRY_REPRESENTATION('supplemental geometry',(#417,
#418,#419,#420,#421,#422,#423,#424,#425,#426),#715);
#12=GEOMETRICALLY_BOUNDED_WIREFRAME_SHAPE_REPRESENTATION(
'VFHVRBD010R02N015T09-None',(#27),#715);
#13=SHAPE_REPRESENTATION_RELATIONSHIP('None',
'relationship between VFHVRBD010R02N015T09-None and VFHVRBD010R02N015T
09-None',#26,#15);
#14=SHAPE_REPRESENTATION_RELATIONSHIP('None',
'relationship between VFHVRBD010R02N015T09-None and VFHVRBD010R02N015T
09-None',#26,#12);
#15=ADVANCED_BREP_SHAPE_REPRESENTATION('VFHVRBD010R02N015T09-None',(#46,
#47),#715);
#16=SHAPE_DEFINITION_REPRESENTATION(#17,#26);
#17=PRODUCT_DEFINITION_SHAPE('','SHAPE FOR VFHVRBD010R02N015T09_ASM.',#18);
#18=PRODUCT_DEFINITION('part definition','',#20,#19);
#19=PRODUCT_DEFINITION_CONTEXT('part definition',#25,'design');
#20=PRODUCT_DEFINITION_FORMATION_WITH_SPECIFIED_SOURCE(' ',' ',#22,
 .NOT_KNOWN.);
#21=PRODUCT_RELATED_PRODUCT_CATEGORY('part','',(#22));
#22=PRODUCT('VFHVRBD010R02N015T09_ASM','VFHVRBD010R02N015T09_ASM',
'NOT SPECIFIED',(#23));
#23=PRODUCT_CONTEXT('',#25,'mechanical');
#24=APPLICATION_PROTOCOL_DEFINITION('international standard',
'automotive_design',2010,#25);
#25=APPLICATION_CONTEXT(
'core data for automotive mechanical design processes');
#26=SHAPE_REPRESENTATION('VFHVRBD010R02N015T09-None',(#415),#715);
#27=GEOMETRIC_CURVE_SET('None',(#614,#329,#330,#331,#332,#333));
#28=CONICAL_SURFACE('',#443,0.485,45.00000000001);
#29=CONICAL_SURFACE('',#447,0.485,45.00000000001);
#30=CONICAL_SURFACE('',#453,0.5681828457729,0.9);
#31=CONICAL_SURFACE('',#455,0.5681828457729,0.9);
#32=CONICAL_SURFACE('',#463,1.93503526435,15.);
#33=CONICAL_SURFACE('',#465,1.93503526435,15.);
#34=CONICAL_SURFACE('',#471,2.75,45.);
#35=CONICAL_SURFACE('',#473,2.75,45.);
#36=SURFACE_STYLE_USAGE(.BOTH.,#38);
#37=SURFACE_STYLE_USAGE(.BOTH.,#39);
#38=SURFACE_SIDE_STYLE('',(#40));
#39=SURFACE_SIDE_STYLE('',(#41));
#40=SURFACE_STYLE_FILL_AREA(#42);
#41=SURFACE_STYLE_FILL_AREA(#43);
#42=FILL_AREA_STYLE('',(#44));
#43=FILL_AREA_STYLE('',(#45));
#44=FILL_AREA_STYLE_COLOUR('',#413);
#45=FILL_AREA_STYLE_COLOUR('',#414);
#46=MANIFOLD_SOLID_BREP('CUT',#48);
#47=MANIFOLD_SOLID_BREP('NOCUT',#49);
#48=CLOSED_SHELL('',(#58,#59,#60,#61,#62,#63));
#49=CLOSED_SHELL('',(#64,#65,#66,#67,#68,#69,#70,#71,#72,#73,#74,#75,#76,
#77,#78,#79));
#50=TOROIDAL_SURFACE('',#437,0.3,0.2);
#51=TOROIDAL_SURFACE('',#439,0.3,0.2);
#52=TOROIDAL_SURFACE('',#459,6.665625486436,6.);
#53=TOROIDAL_SURFACE('',#461,6.665625486436,6.);
#54=PLANE('',#431);
#55=PLANE('',#440);
#56=PLANE('',#445);
#57=PLANE('',#474);
#58=ADVANCED_FACE('',(#86),#80,.T.);
#59=ADVANCED_FACE('',(#87),#54,.F.);
#60=ADVANCED_FACE('',(#88),#81,.T.);
#61=ADVANCED_FACE('',(#89),#50,.T.);
#62=ADVANCED_FACE('',(#90),#51,.T.);
#63=ADVANCED_FACE('',(#91),#55,.T.);
#64=ADVANCED_FACE('',(#92),#28,.T.);
#65=ADVANCED_FACE('',(#93),#56,.F.);
#66=ADVANCED_FACE('',(#94),#29,.T.);
#67=ADVANCED_FACE('',(#95),#82,.T.);
#68=ADVANCED_FACE('',(#96),#83,.T.);
#69=ADVANCED_FACE('',(#97),#30,.T.);
#70=ADVANCED_FACE('',(#98),#31,.T.);
#71=ADVANCED_FACE('',(#99),#52,.F.);
#72=ADVANCED_FACE('',(#100),#53,.F.);
#73=ADVANCED_FACE('',(#101),#32,.T.);
#74=ADVANCED_FACE('',(#102),#33,.T.);
#75=ADVANCED_FACE('',(#103),#84,.T.);
#76=ADVANCED_FACE('',(#104),#85,.T.);
#77=ADVANCED_FACE('',(#105),#34,.T.);
#78=ADVANCED_FACE('',(#106),#35,.T.);
#79=ADVANCED_FACE('',(#107),#57,.F.);
#80=CYLINDRICAL_SURFACE('',#429,0.5);
#81=CYLINDRICAL_SURFACE('',#433,0.5);
#82=CYLINDRICAL_SURFACE('',#449,0.47);
#83=CYLINDRICAL_SURFACE('',#451,0.47);
#84=CYLINDRICAL_SURFACE('',#467,3.);
#85=CYLINDRICAL_SURFACE('',#469,3.);
#86=FACE_OUTER_BOUND('',#108,.T.);
#87=FACE_OUTER_BOUND('',#109,.T.);
#88=FACE_OUTER_BOUND('',#110,.T.);
#89=FACE_OUTER_BOUND('',#111,.T.);
#90=FACE_OUTER_BOUND('',#112,.T.);
#91=FACE_OUTER_BOUND('',#113,.T.);
#92=FACE_OUTER_BOUND('',#114,.T.);
#93=FACE_OUTER_BOUND('',#115,.T.);
#94=FACE_OUTER_BOUND('',#116,.T.);
#95=FACE_OUTER_BOUND('',#117,.T.);
#96=FACE_OUTER_BOUND('',#118,.T.);
#97=FACE_OUTER_BOUND('',#119,.T.);
#98=FACE_OUTER_BOUND('',#120,.T.);
#99=FACE_OUTER_BOUND('',#121,.T.);
#100=FACE_OUTER_BOUND('',#122,.T.);
#101=FACE_OUTER_BOUND('',#123,.T.);
#102=FACE_OUTER_BOUND('',#124,.T.);
#103=FACE_OUTER_BOUND('',#125,.T.);
#104=FACE_OUTER_BOUND('',#126,.T.);
#105=FACE_OUTER_BOUND('',#127,.T.);
#106=FACE_OUTER_BOUND('',#128,.T.);
#107=FACE_OUTER_BOUND('',#129,.T.);
#108=EDGE_LOOP('',(#130,#131,#132,#133));
#109=EDGE_LOOP('',(#134,#135));
#110=EDGE_LOOP('',(#136,#137,#138,#139));
#111=EDGE_LOOP('',(#140,#141,#142,#143));
#112=EDGE_LOOP('',(#144,#145,#146,#147));
#113=EDGE_LOOP('',(#148,#149));
#114=EDGE_LOOP('',(#150,#151,#152,#153));
#115=EDGE_LOOP('',(#154,#155));
#116=EDGE_LOOP('',(#156,#157,#158,#159));
#117=EDGE_LOOP('',(#160,#161,#162,#163));
#118=EDGE_LOOP('',(#164,#165,#166,#167));
#119=EDGE_LOOP('',(#168,#169,#170,#171));
#120=EDGE_LOOP('',(#172,#173,#174,#175));
#121=EDGE_LOOP('',(#176,#177,#178,#179));
#122=EDGE_LOOP('',(#180,#181,#182,#183));
#123=EDGE_LOOP('',(#184,#185,#186,#187));
#124=EDGE_LOOP('',(#188,#189,#190,#191));
#125=EDGE_LOOP('',(#192,#193,#194,#195));
#126=EDGE_LOOP('',(#196,#197,#198,#199));
#127=EDGE_LOOP('',(#200,#201,#202,#203));
#128=EDGE_LOOP('',(#204,#205,#206,#207));
#129=EDGE_LOOP('',(#208,#209));
#130=ORIENTED_EDGE('',*,*,#232,.T.);
#131=ORIENTED_EDGE('',*,*,#233,.T.);
#132=ORIENTED_EDGE('',*,*,#234,.F.);
#133=ORIENTED_EDGE('',*,*,#235,.T.);
#134=ORIENTED_EDGE('',*,*,#236,.F.);
#135=ORIENTED_EDGE('',*,*,#235,.F.);
#136=ORIENTED_EDGE('',*,*,#234,.T.);
#137=ORIENTED_EDGE('',*,*,#237,.T.);
#138=ORIENTED_EDGE('',*,*,#232,.F.);
#139=ORIENTED_EDGE('',*,*,#236,.T.);
#140=ORIENTED_EDGE('',*,*,#238,.T.);
#141=ORIENTED_EDGE('',*,*,#239,.T.);
#142=ORIENTED_EDGE('',*,*,#237,.F.);
#143=ORIENTED_EDGE('',*,*,#240,.F.);
#144=ORIENTED_EDGE('',*,*,#233,.F.);
#145=ORIENTED_EDGE('',*,*,#239,.F.);
#146=ORIENTED_EDGE('',*,*,#241,.T.);
#147=ORIENTED_EDGE('',*,*,#240,.T.);
#148=ORIENTED_EDGE('',*,*,#241,.F.);
#149=ORIENTED_EDGE('',*,*,#238,.F.);
#150=ORIENTED_EDGE('',*,*,#242,.F.);
#151=ORIENTED_EDGE('',*,*,#243,.F.);
#152=ORIENTED_EDGE('',*,*,#244,.T.);
#153=ORIENTED_EDGE('',*,*,#245,.T.);
#154=ORIENTED_EDGE('',*,*,#246,.F.);
#155=ORIENTED_EDGE('',*,*,#245,.F.);
#156=ORIENTED_EDGE('',*,*,#244,.F.);
#157=ORIENTED_EDGE('',*,*,#247,.F.);
#158=ORIENTED_EDGE('',*,*,#242,.T.);
#159=ORIENTED_EDGE('',*,*,#246,.T.);
#160=ORIENTED_EDGE('',*,*,#247,.T.);
#161=ORIENTED_EDGE('',*,*,#248,.T.);
#162=ORIENTED_EDGE('',*,*,#249,.T.);
#163=ORIENTED_EDGE('',*,*,#250,.F.);
#164=ORIENTED_EDGE('',*,*,#251,.T.);
#165=ORIENTED_EDGE('',*,*,#248,.F.);
#166=ORIENTED_EDGE('',*,*,#243,.T.);
#167=ORIENTED_EDGE('',*,*,#250,.T.);
#168=ORIENTED_EDGE('',*,*,#252,.T.);
#169=ORIENTED_EDGE('',*,*,#253,.T.);
#170=ORIENTED_EDGE('',*,*,#251,.F.);
#171=ORIENTED_EDGE('',*,*,#254,.F.);
#172=ORIENTED_EDGE('',*,*,#249,.F.);
#173=ORIENTED_EDGE('',*,*,#253,.F.);
#174=ORIENTED_EDGE('',*,*,#255,.T.);
#175=ORIENTED_EDGE('',*,*,#254,.T.);
#176=ORIENTED_EDGE('',*,*,#255,.F.);
#177=ORIENTED_EDGE('',*,*,#256,.T.);
#178=ORIENTED_EDGE('',*,*,#257,.F.);
#179=ORIENTED_EDGE('',*,*,#258,.F.);
#180=ORIENTED_EDGE('',*,*,#259,.F.);
#181=ORIENTED_EDGE('',*,*,#256,.F.);
#182=ORIENTED_EDGE('',*,*,#252,.F.);
#183=ORIENTED_EDGE('',*,*,#258,.T.);
#184=ORIENTED_EDGE('',*,*,#260,.F.);
#185=ORIENTED_EDGE('',*,*,#261,.T.);
#186=ORIENTED_EDGE('',*,*,#259,.T.);
#187=ORIENTED_EDGE('',*,*,#262,.F.);
#188=ORIENTED_EDGE('',*,*,#257,.T.);
#189=ORIENTED_EDGE('',*,*,#261,.F.);
#190=ORIENTED_EDGE('',*,*,#263,.F.);
#191=ORIENTED_EDGE('',*,*,#262,.T.);
#192=ORIENTED_EDGE('',*,*,#263,.T.);
#193=ORIENTED_EDGE('',*,*,#264,.T.);
#194=ORIENTED_EDGE('',*,*,#265,.T.);
#195=ORIENTED_EDGE('',*,*,#266,.F.);
#196=ORIENTED_EDGE('',*,*,#267,.T.);
#197=ORIENTED_EDGE('',*,*,#264,.F.);
#198=ORIENTED_EDGE('',*,*,#260,.T.);
#199=ORIENTED_EDGE('',*,*,#266,.T.);
#200=ORIENTED_EDGE('',*,*,#268,.T.);
#201=ORIENTED_EDGE('',*,*,#269,.T.);
#202=ORIENTED_EDGE('',*,*,#267,.F.);
#203=ORIENTED_EDGE('',*,*,#270,.F.);
#204=ORIENTED_EDGE('',*,*,#265,.F.);
#205=ORIENTED_EDGE('',*,*,#269,.F.);
#206=ORIENTED_EDGE('',*,*,#271,.T.);
#207=ORIENTED_EDGE('',*,*,#270,.T.);
#208=ORIENTED_EDGE('',*,*,#268,.F.);
#209=ORIENTED_EDGE('',*,*,#271,.F.);
#210=VERTEX_POINT('',#631);
#211=VERTEX_POINT('',#632);
#212=VERTEX_POINT('',#634);
#213=VERTEX_POINT('',#636);
#214=VERTEX_POINT('',#644);
#215=VERTEX_POINT('',#645);
#216=VERTEX_POINT('',#653);
#217=VERTEX_POINT('',#654);
#218=VERTEX_POINT('',#656);
#219=VERTEX_POINT('',#658);
#220=VERTEX_POINT('',#666);
#221=VERTEX_POINT('',#668);
#222=VERTEX_POINT('',#674);
#223=VERTEX_POINT('',#675);
#224=VERTEX_POINT('',#682);
#225=VERTEX_POINT('',#684);
#226=VERTEX_POINT('',#690);
#227=VERTEX_POINT('',#691);
#228=VERTEX_POINT('',#698);
#229=VERTEX_POINT('',#700);
#230=VERTEX_POINT('',#706);
#231=VERTEX_POINT('',#707);
#232=EDGE_CURVE('',#210,#211,#338,.T.);
#233=EDGE_CURVE('',#211,#212,#273,.T.);
#234=EDGE_CURVE('',#213,#212,#339,.T.);
#235=EDGE_CURVE('',#213,#210,#274,.T.);
#236=EDGE_CURVE('',#210,#213,#275,.T.);
#237=EDGE_CURVE('',#212,#211,#276,.T.);
#238=EDGE_CURVE('',#214,#215,#277,.T.);
#239=EDGE_CURVE('',#215,#211,#278,.T.);
#240=EDGE_CURVE('',#214,#212,#279,.T.);
#241=EDGE_CURVE('',#215,#214,#280,.T.);
#242=EDGE_CURVE('',#216,#217,#340,.T.);
#243=EDGE_CURVE('',#218,#216,#281,.T.);
#244=EDGE_CURVE('',#218,#219,#341,.T.);
#245=EDGE_CURVE('',#219,#217,#282,.T.);
#246=EDGE_CURVE('',#217,#219,#283,.T.);
#247=EDGE_CURVE('',#216,#218,#284,.T.);
#248=EDGE_CURVE('',#218,#220,#342,.T.);
#249=EDGE_CURVE('',#220,#221,#285,.T.);
#250=EDGE_CURVE('',#216,#221,#343,.T.);
#251=EDGE_CURVE('',#221,#220,#286,.T.);
#252=EDGE_CURVE('',#222,#223,#287,.T.);
#253=EDGE_CURVE('',#223,#220,#344,.T.);
#254=EDGE_CURVE('',#222,#221,#345,.T.);
#255=EDGE_CURVE('',#223,#222,#288,.T.);
#256=EDGE_CURVE('',#223,#224,#289,.T.);
#257=EDGE_CURVE('',#225,#224,#290,.T.);
#258=EDGE_CURVE('',#222,#225,#291,.T.);
#259=EDGE_CURVE('',#224,#225,#292,.T.);
#260=EDGE_CURVE('',#226,#227,#293,.T.);
#261=EDGE_CURVE('',#226,#224,#346,.T.);
#262=EDGE_CURVE('',#227,#225,#347,.T.);
#263=EDGE_CURVE('',#227,#226,#294,.T.);
#264=EDGE_CURVE('',#226,#228,#348,.T.);
#265=EDGE_CURVE('',#228,#229,#295,.T.);
#266=EDGE_CURVE('',#227,#229,#349,.T.);
#267=EDGE_CURVE('',#229,#228,#296,.T.);
#268=EDGE_CURVE('',#230,#231,#297,.T.);
#269=EDGE_CURVE('',#231,#228,#350,.T.);
#270=EDGE_CURVE('',#230,#229,#351,.T.);
#271=EDGE_CURVE('',#231,#230,#298,.T.);
#272=CIRCLE('',#416,0.2);
#273=CIRCLE('',#427,0.5);
#274=CIRCLE('',#428,0.5);
#275=CIRCLE('',#430,0.5);
#276=CIRCLE('',#432,0.5);
#277=CIRCLE('',#434,0.3);
#278=CIRCLE('',#435,0.2);
#279=CIRCLE('',#436,0.2);
#280=CIRCLE('',#438,0.3);
#281=CIRCLE('',#441,0.47);
#282=CIRCLE('',#442,0.5);
#283=CIRCLE('',#444,0.5);
#284=CIRCLE('',#446,0.47);
#285=CIRCLE('',#448,0.47);
#286=CIRCLE('',#450,0.47);
#287=CIRCLE('',#452,0.666365691546);
#288=CIRCLE('',#454,0.666365691546);
#289=CIRCLE('',#456,6.);
#290=CIRCLE('',#457,0.8700705287003);
#291=CIRCLE('',#458,6.);
#292=CIRCLE('',#460,0.8700705287003);
#293=CIRCLE('',#462,3.);
#294=CIRCLE('',#464,3.);
#295=CIRCLE('',#466,3.);
#296=CIRCLE('',#468,3.);
#297=CIRCLE('',#470,2.5);
#298=CIRCLE('',#472,2.5);
#299=CURVE_STYLE('',#314,POSITIVE_LENGTH_MEASURE(0.18),#410);
#300=CURVE_STYLE('',#315,POSITIVE_LENGTH_MEASURE(0.18),#410);
#301=CURVE_STYLE('',#316,POSITIVE_LENGTH_MEASURE(0.18),#410);
#302=CURVE_STYLE('',#317,POSITIVE_LENGTH_MEASURE(0.18),#410);
#303=CURVE_STYLE('',#318,POSITIVE_LENGTH_MEASURE(0.18),#410);
#304=CURVE_STYLE('',#319,POSITIVE_LENGTH_MEASURE(0.13),#411);
#305=CURVE_STYLE('',#320,POSITIVE_LENGTH_MEASURE(0.13),#411);
#306=CURVE_STYLE('',#321,POSITIVE_LENGTH_MEASURE(0.13),#412);
#307=CURVE_STYLE('',#322,POSITIVE_LENGTH_MEASURE(0.13),#412);
#308=CURVE_STYLE('',#323,POSITIVE_LENGTH_MEASURE(0.13),#411);
#309=CURVE_STYLE('',#324,POSITIVE_LENGTH_MEASURE(0.13),#411);
#310=CURVE_STYLE('',#325,POSITIVE_LENGTH_MEASURE(0.13),#412);
#311=CURVE_STYLE('',#326,POSITIVE_LENGTH_MEASURE(0.13),#411);
#312=CURVE_STYLE('',#327,POSITIVE_LENGTH_MEASURE(0.13),#411);
#313=CURVE_STYLE('',#328,POSITIVE_LENGTH_MEASURE(0.13),#411);
#314=DRAUGHTING_PRE_DEFINED_CURVE_FONT('continuous');
#315=DRAUGHTING_PRE_DEFINED_CURVE_FONT('continuous');
#316=DRAUGHTING_PRE_DEFINED_CURVE_FONT('continuous');
#317=DRAUGHTING_PRE_DEFINED_CURVE_FONT('continuous');
#318=DRAUGHTING_PRE_DEFINED_CURVE_FONT('continuous');
#319=DRAUGHTING_PRE_DEFINED_CURVE_FONT('continuous');
#320=DRAUGHTING_PRE_DEFINED_CURVE_FONT('continuous');
#321=DRAUGHTING_PRE_DEFINED_CURVE_FONT('continuous');
#322=DRAUGHTING_PRE_DEFINED_CURVE_FONT('continuous');
#323=DRAUGHTING_PRE_DEFINED_CURVE_FONT('continuous');
#324=DRAUGHTING_PRE_DEFINED_CURVE_FONT('continuous');
#325=DRAUGHTING_PRE_DEFINED_CURVE_FONT('continuous');
#326=DRAUGHTING_PRE_DEFINED_CURVE_FONT('continuous');
#327=DRAUGHTING_PRE_DEFINED_CURVE_FONT('continuous');
#328=DRAUGHTING_PRE_DEFINED_CURVE_FONT('continuous');
#329=TRIMMED_CURVE('',#334,(PARAMETER_VALUE(0.)),(PARAMETER_VALUE(1.)),
 .T.,.PARAMETER.);
#330=TRIMMED_CURVE('',#335,(PARAMETER_VALUE(0.)),(PARAMETER_VALUE(1.)),
 .T.,.PARAMETER.);
#331=TRIMMED_CURVE('',#336,(PARAMETER_VALUE(0.)),(PARAMETER_VALUE(1.)),
 .T.,.PARAMETER.);
#332=TRIMMED_CURVE('',#337,(PARAMETER_VALUE(0.)),(PARAMETER_VALUE(1.)),
 .T.,.PARAMETER.);
#333=TRIMMED_CURVE('',#272,(PARAMETER_VALUE(0.)),(PARAMETER_VALUE(90.)),
 .T.,.PARAMETER.);
#334=LINE('',#615,#352);
#335=LINE('',#616,#353);
#336=LINE('',#617,#354);
#337=LINE('',#618,#355);
#338=LINE('',#630,#356);
#339=LINE('',#635,#357);
#340=LINE('',#652,#358);
#341=LINE('',#657,#359);
#342=LINE('',#665,#360);
#343=LINE('',#669,#361);
#344=LINE('',#676,#362);
#345=LINE('',#677,#363);
#346=LINE('',#692,#364);
#347=LINE('',#693,#365);
#348=LINE('',#697,#366);
#349=LINE('',#701,#367);
#350=LINE('',#708,#368);
#351=LINE('',#709,#369);
#352=VECTOR('',#477,0.3);
#353=VECTOR('',#478,0.8);
#354=VECTOR('',#479,0.5);
#355=VECTOR('',#480,1.);
#356=VECTOR('',#503,1.);
#357=VECTOR('',#506,1.);
#358=VECTOR('',#533,1.);
#359=VECTOR('',#536,1.);
#360=VECTOR('',#549,1.);
#361=VECTOR('',#552,1.);
#362=VECTOR('',#561,1.);
#363=VECTOR('',#562,1.);
#364=VECTOR('',#583,1.);
#365=VECTOR('',#584,1.);
#366=VECTOR('',#591,1.);
#367=VECTOR('',#594,1.);
#368=VECTOR('',#603,1.);
#369=VECTOR('',#604,1.);
#370=PRESENTATION_LAYER_ASSIGNMENT('1','Layer 1',(#614,#329,#330,#331,#332,
#333,#417,#418,#421,#422,#423,#424,#425,#426,#46,#47));
#371=PRESENTATION_LAYER_ASSIGNMENT('2','Layer 2',(#419,#420));
#372=STYLED_ITEM('',(#390),#614);
#373=STYLED_ITEM('',(#391),#329);
#374=STYLED_ITEM('',(#392),#330);
#375=STYLED_ITEM('',(#393),#331);
#376=STYLED_ITEM('',(#394),#332);
#377=STYLED_ITEM('',(#395),#333);
#378=STYLED_ITEM('',(#396),#417);
#379=STYLED_ITEM('',(#397),#418);
#380=STYLED_ITEM('',(#398),#419);
#381=STYLED_ITEM('',(#399),#420);
#382=STYLED_ITEM('',(#400),#421);
#383=STYLED_ITEM('',(#401),#422);
#384=STYLED_ITEM('',(#402),#423);
#385=STYLED_ITEM('',(#403),#424);
#386=STYLED_ITEM('',(#404),#425);
#387=STYLED_ITEM('',(#405),#426);
#388=STYLED_ITEM('',(#406),#46);
#389=STYLED_ITEM('',(#407),#47);
#390=PRESENTATION_STYLE_ASSIGNMENT((#408));
#391=PRESENTATION_STYLE_ASSIGNMENT((#299));
#392=PRESENTATION_STYLE_ASSIGNMENT((#300));
#393=PRESENTATION_STYLE_ASSIGNMENT((#301));
#394=PRESENTATION_STYLE_ASSIGNMENT((#302));
#395=PRESENTATION_STYLE_ASSIGNMENT((#303));
#396=PRESENTATION_STYLE_ASSIGNMENT((#304));
#397=PRESENTATION_STYLE_ASSIGNMENT((#305));
#398=PRESENTATION_STYLE_ASSIGNMENT((#306));
#399=PRESENTATION_STYLE_ASSIGNMENT((#307));
#400=PRESENTATION_STYLE_ASSIGNMENT((#308));
#401=PRESENTATION_STYLE_ASSIGNMENT((#309));
#402=PRESENTATION_STYLE_ASSIGNMENT((#310));
#403=PRESENTATION_STYLE_ASSIGNMENT((#311));
#404=PRESENTATION_STYLE_ASSIGNMENT((#312));
#405=PRESENTATION_STYLE_ASSIGNMENT((#313));
#406=PRESENTATION_STYLE_ASSIGNMENT((#36));
#407=PRESENTATION_STYLE_ASSIGNMENT((#37));
#408=POINT_STYLE('',#409,POSITIVE_LENGTH_MEASURE(3.),#410);
#409=PRE_DEFINED_POINT_MARKER_SYMBOL('plus');
#410=COLOUR_RGB('Medium Royal',0.2,0.4,0.8);
#411=COLOUR_RGB('Strong Stone',0.576470588235294,0.54508278019379,0.392156862745098);
#412=COLOUR_RGB('Medium Umber',0.372533760585946,0.313725490196078,0.270572976272221);
#413=COLOUR_RGB('cutting part',0.8,0.8,0.8);
#414=COLOUR_RGB('non-cutting part and shank',0.501960784313725,0.501960784313725,
0.501960784313725);
#415=AXIS2_PLACEMENT_3D('',#613,#475,#476);
#416=AXIS2_PLACEMENT_3D('',#619,#481,#482);
#417=AXIS2_PLACEMENT_3D('',#620,#483,#484);
#418=AXIS2_PLACEMENT_3D('',#621,#485,#486);
#419=AXIS2_PLACEMENT_3D('CIP',#622,#487,#488);
#420=AXIS2_PLACEMENT_3D('PCS',#623,#489,#490);
#421=AXIS2_PLACEMENT_3D('MCS',#624,#491,#492);
#422=AXIS2_PLACEMENT_3D('',#625,#493,#494);
#423=AXIS2_PLACEMENT_3D('STEP_TEMP_EM26_1',#626,#495,#496);
#424=AXIS2_PLACEMENT_3D('',#627,#497,#498);
#425=AXIS2_PLACEMENT_3D('',#628,#499,#500);
#426=AXIS2_PLACEMENT_3D('',#629,#501,#502);
#427=AXIS2_PLACEMENT_3D('',#633,#504,#505);
#428=AXIS2_PLACEMENT_3D('',#637,#507,#508);
#429=AXIS2_PLACEMENT_3D('',#638,#509,#510);
#430=AXIS2_PLACEMENT_3D('',#639,#511,#512);
#431=AXIS2_PLACEMENT_3D('',#640,#513,#514);
#432=AXIS2_PLACEMENT_3D('',#641,#515,#516);
#433=AXIS2_PLACEMENT_3D('',#642,#517,#518);
#434=AXIS2_PLACEMENT_3D('',#643,#519,#520);
#435=AXIS2_PLACEMENT_3D('',#646,#521,#522);
#436=AXIS2_PLACEMENT_3D('',#647,#523,#524);
#437=AXIS2_PLACEMENT_3D('',#648,#525,#526);
#438=AXIS2_PLACEMENT_3D('',#649,#527,#528);
#439=AXIS2_PLACEMENT_3D('',#650,#529,#530);
#440=AXIS2_PLACEMENT_3D('',#651,#531,#532);
#441=AXIS2_PLACEMENT_3D('',#655,#534,#535);
#442=AXIS2_PLACEMENT_3D('',#659,#537,#538);
#443=AXIS2_PLACEMENT_3D('',#660,#539,#540);
#444=AXIS2_PLACEMENT_3D('',#661,#541,#542);
#445=AXIS2_PLACEMENT_3D('',#662,#543,#544);
#446=AXIS2_PLACEMENT_3D('',#663,#545,#546);
#447=AXIS2_PLACEMENT_3D('',#664,#547,#548);
#448=AXIS2_PLACEMENT_3D('',#667,#550,#551);
#449=AXIS2_PLACEMENT_3D('',#670,#553,#554);
#450=AXIS2_PLACEMENT_3D('',#671,#555,#556);
#451=AXIS2_PLACEMENT_3D('',#672,#557,#558);
#452=AXIS2_PLACEMENT_3D('',#673,#559,#560);
#453=AXIS2_PLACEMENT_3D('',#678,#563,#564);
#454=AXIS2_PLACEMENT_3D('',#679,#565,#566);
#455=AXIS2_PLACEMENT_3D('',#680,#567,#568);
#456=AXIS2_PLACEMENT_3D('',#681,#569,#570);
#457=AXIS2_PLACEMENT_3D('',#683,#571,#572);
#458=AXIS2_PLACEMENT_3D('',#685,#573,#574);
#459=AXIS2_PLACEMENT_3D('',#686,#575,#576);
#460=AXIS2_PLACEMENT_3D('',#687,#577,#578);
#461=AXIS2_PLACEMENT_3D('',#688,#579,#580);
#462=AXIS2_PLACEMENT_3D('',#689,#581,#582);
#463=AXIS2_PLACEMENT_3D('',#694,#585,#586);
#464=AXIS2_PLACEMENT_3D('',#695,#587,#588);
#465=AXIS2_PLACEMENT_3D('',#696,#589,#590);
#466=AXIS2_PLACEMENT_3D('',#699,#592,#593);
#467=AXIS2_PLACEMENT_3D('',#702,#595,#596);
#468=AXIS2_PLACEMENT_3D('',#703,#597,#598);
#469=AXIS2_PLACEMENT_3D('',#704,#599,#600);
#470=AXIS2_PLACEMENT_3D('',#705,#601,#602);
#471=AXIS2_PLACEMENT_3D('',#710,#605,#606);
#472=AXIS2_PLACEMENT_3D('',#711,#607,#608);
#473=AXIS2_PLACEMENT_3D('',#712,#609,#610);
#474=AXIS2_PLACEMENT_3D('',#713,#611,#612);
#475=DIRECTION('',(0.,0.,1.));
#476=DIRECTION('',(1.,0.,0.));
#477=DIRECTION('',(-1.,0.,0.));
#478=DIRECTION('',(0.,0.,1.));
#479=DIRECTION('',(1.,0.,0.));
#480=DIRECTION('',(0.,0.,-1.));
#481=DIRECTION('',(0.,1.,0.));
#482=DIRECTION('',(0.,0.,-1.));
#483=DIRECTION('',(0.,0.,1.));
#484=DIRECTION('',(1.,0.,0.));
#485=DIRECTION('',(0.,0.,1.));
#486=DIRECTION('',(1.,0.,0.));
#487=DIRECTION('',(0.,0.,1.));
#488=DIRECTION('',(1.,0.,0.));
#489=DIRECTION('',(0.,0.,1.));
#490=DIRECTION('',(1.,0.,0.));
#491=DIRECTION('',(0.,0.,1.));
#492=DIRECTION('',(1.,0.,0.));
#493=DIRECTION('',(0.,0.,1.));
#494=DIRECTION('',(1.,0.,0.));
#495=DIRECTION('',(0.,0.,1.));
#496=DIRECTION('',(1.,0.,0.));
#497=DIRECTION('',(0.,0.,1.));
#498=DIRECTION('',(1.,0.,0.));
#499=DIRECTION('',(0.,0.,1.));
#500=DIRECTION('',(1.,0.,0.));
#501=DIRECTION('',(0.,0.,1.));
#502=DIRECTION('',(1.,0.,0.));
#503=DIRECTION('',(0.,0.,-1.));
#504=DIRECTION('',(0.,0.,1.));
#505=DIRECTION('',(0.,-1.,0.));
#506=DIRECTION('',(0.,0.,-1.));
#507=DIRECTION('',(0.,0.,-1.));
#508=DIRECTION('',(0.,1.,0.));
#509=DIRECTION('',(0.,0.,-1.));
#510=DIRECTION('',(0.,1.,0.));
#511=DIRECTION('',(0.,0.,-1.));
#512=DIRECTION('',(0.,-1.,0.));
#513=DIRECTION('',(0.,0.,-1.));
#514=DIRECTION('',(1.,0.,0.));
#515=DIRECTION('',(0.,0.,1.));
#516=DIRECTION('',(0.,1.,0.));
#517=DIRECTION('',(0.,0.,-1.));
#518=DIRECTION('',(0.,1.,0.));
#519=DIRECTION('',(0.,0.,1.));
#520=DIRECTION('',(0.,1.,0.));
#521=DIRECTION('',(-1.,0.,0.));
#522=DIRECTION('',(0.,-1.,0.));
#523=DIRECTION('',(1.,0.,0.));
#524=DIRECTION('',(0.,1.,0.));
#525=DIRECTION('',(0.,0.,-1.));
#526=DIRECTION('',(0.,1.,0.));
#527=DIRECTION('',(0.,0.,1.));
#528=DIRECTION('',(0.,-1.,0.));
#529=DIRECTION('',(0.,0.,-1.));
#530=DIRECTION('',(0.,1.,0.));
#531=DIRECTION('',(0.,0.,-1.));
#532=DIRECTION('',(0.,1.,0.));
#533=DIRECTION('',(0.,0.707106781186598,-0.707106781186498));
#534=DIRECTION('',(0.,0.,1.));
#535=DIRECTION('',(0.,-1.,0.));
#536=DIRECTION('',(0.,-0.707106781186798,-0.707106781186298));
#537=DIRECTION('',(0.,0.,1.));
#538=DIRECTION('',(0.,-1.,0.));
#539=DIRECTION('',(0.,0.,-1.));
#540=DIRECTION('',(0.,1.,-1.17037071648644E-17));
#541=DIRECTION('',(0.,0.,1.));
#542=DIRECTION('',(0.,1.,0.));
#543=DIRECTION('',(0.,0.,1.));
#544=DIRECTION('',(-1.,0.,0.));
#545=DIRECTION('',(0.,0.,1.));
#546=DIRECTION('',(0.,1.,0.));
#547=DIRECTION('',(0.,0.,-1.));
#548=DIRECTION('',(0.,1.,-1.17037071648644E-17));
#549=DIRECTION('',(0.,0.,1.));
#550=DIRECTION('',(0.,0.,-1.));
#551=DIRECTION('',(0.,-1.,0.));
#552=DIRECTION('',(0.,0.,1.));
#553=DIRECTION('',(0.,0.,-1.));
#554=DIRECTION('',(0.,1.,0.));
#555=DIRECTION('',(0.,0.,-1.));
#556=DIRECTION('',(0.,1.,0.));
#557=DIRECTION('',(0.,0.,-1.));
#558=DIRECTION('',(0.,1.,0.));
#559=DIRECTION('',(0.,0.,-1.));
#560=DIRECTION('',(0.,1.,0.));
#561=DIRECTION('',(0.,0.0157073173118294,-0.99987663248166));
#562=DIRECTION('',(0.,-0.0157073173118294,-0.99987663248166));
#563=DIRECTION('',(0.,0.,1.));
#564=DIRECTION('',(0.,-1.,2.13144532686217E-15));
#565=DIRECTION('',(0.,0.,-1.));
#566=DIRECTION('',(0.,-1.,0.));
#567=DIRECTION('',(0.,0.,1.));
#568=DIRECTION('',(0.,-1.,2.13144532686217E-15));
#569=DIRECTION('',(1.,0.,0.));
#570=DIRECTION('',(0.,0.965925826289289,0.258819045101697));
#571=DIRECTION('',(0.,0.,1.));
#572=DIRECTION('',(0.,1.,0.));
#573=DIRECTION('',(-1.,0.,0.));
#574=DIRECTION('',(0.,-0.965925826289289,0.258819045101697));
#575=DIRECTION('',(0.,0.,-1.));
#576=DIRECTION('',(0.,1.,0.));
#577=DIRECTION('',(0.,0.,1.));
#578=DIRECTION('',(0.,-1.,0.));
#579=DIRECTION('',(0.,0.,-1.));
#580=DIRECTION('',(0.,1.,0.));
#581=DIRECTION('',(0.,0.,1.));
#582=DIRECTION('',(0.,-1.,0.));
#583=DIRECTION('',(0.,0.258819045102493,-0.965925826289076));
#584=DIRECTION('',(0.,-0.258819045102493,-0.965925826289076));
#585=DIRECTION('',(0.,0.,1.));
#586=DIRECTION('',(0.,-1.,-3.21382892729509E-16));
#587=DIRECTION('',(0.,0.,1.));
#588=DIRECTION('',(0.,1.,0.));
#589=DIRECTION('',(0.,0.,1.));
#590=DIRECTION('',(0.,-1.,-3.21382892729509E-16));
#591=DIRECTION('',(0.,0.,1.));
#592=DIRECTION('',(0.,0.,-1.));
#593=DIRECTION('',(0.,-1.,0.));
#594=DIRECTION('',(0.,0.,1.));
#595=DIRECTION('',(0.,0.,-1.));
#596=DIRECTION('',(0.,1.,0.));
#597=DIRECTION('',(0.,0.,-1.));
#598=DIRECTION('',(0.,1.,0.));
#599=DIRECTION('',(0.,0.,-1.));
#600=DIRECTION('',(0.,1.,0.));
#601=DIRECTION('',(0.,0.,-1.));
#602=DIRECTION('',(0.,1.,0.));
#603=DIRECTION('',(0.,-0.707106781186547,-0.707106781186547));
#604=DIRECTION('',(0.,0.707106781186547,-0.707106781186547));
#605=DIRECTION('',(0.,0.,-1.));
#606=DIRECTION('',(0.,1.,-3.45993213857254E-17));
#607=DIRECTION('',(0.,0.,-1.));
#608=DIRECTION('',(0.,-1.,0.));
#609=DIRECTION('',(0.,0.,-1.));
#610=DIRECTION('',(0.,1.,-3.45993213857254E-17));
#611=DIRECTION('',(0.,0.,-1.));
#612=DIRECTION('',(0.,1.,0.));
#613=CARTESIAN_POINT('',(0.,0.,0.));
#614=CARTESIAN_POINT('CRP',(-0.5,0.,0.));
#615=CARTESIAN_POINT('',(0.,0.,0.));
#616=CARTESIAN_POINT('',(-0.5,0.,0.2));
#617=CARTESIAN_POINT('',(-0.5,0.,1.));
#618=CARTESIAN_POINT('',(0.,0.,1.));
#619=CARTESIAN_POINT('',(-0.3,0.,0.2));
#620=CARTESIAN_POINT('',(0.,0.,0.));
#621=CARTESIAN_POINT('',(0.,0.,0.));
#622=CARTESIAN_POINT('',(0.,0.,0.));
#623=CARTESIAN_POINT('',(0.,0.,60.));
#624=CARTESIAN_POINT('',(0.,0.,42.));
#625=CARTESIAN_POINT('',(0.,0.,0.));
#626=CARTESIAN_POINT('',(0.,0.,0.));
#627=CARTESIAN_POINT('',(0.,0.,0.));
#628=CARTESIAN_POINT('',(0.,0.,0.));
#629=CARTESIAN_POINT('',(0.,0.,0.));
#630=CARTESIAN_POINT('',(0.,-0.5,1.));
#631=CARTESIAN_POINT('',(0.,-0.5,1.));
#632=CARTESIAN_POINT('',(0.,-0.5,0.2));
#633=CARTESIAN_POINT('',(0.,0.,0.2));
#634=CARTESIAN_POINT('',(0.,0.5,0.2));
#635=CARTESIAN_POINT('',(0.,0.5,1.));
#636=CARTESIAN_POINT('',(0.,0.5,1.));
#637=CARTESIAN_POINT('',(0.,1.153986000925E-14,1.));
#638=CARTESIAN_POINT('',(0.,1.153986000925E-14,63.));
#639=CARTESIAN_POINT('',(0.,1.153986000925E-14,1.));
#640=CARTESIAN_POINT('',(150.,150.,1.));
#641=CARTESIAN_POINT('',(0.,0.,0.2));
#642=CARTESIAN_POINT('',(0.,1.153986000925E-14,63.));
#643=CARTESIAN_POINT('',(0.,0.,0.));
#644=CARTESIAN_POINT('',(0.,0.3,0.));
#645=CARTESIAN_POINT('',(0.,-0.3,0.));
#646=CARTESIAN_POINT('',(0.,-0.3,0.2));
#647=CARTESIAN_POINT('',(0.,0.3,0.2));
#648=CARTESIAN_POINT('',(0.,0.,0.2));
#649=CARTESIAN_POINT('',(0.,0.,0.));
#650=CARTESIAN_POINT('',(0.,0.,0.2));
#651=CARTESIAN_POINT('',(0.,0.,0.));
#652=CARTESIAN_POINT('',(0.,0.47,1.03));
#653=CARTESIAN_POINT('',(0.,0.47,1.03));
#654=CARTESIAN_POINT('',(0.,0.5,1.));
#655=CARTESIAN_POINT('',(0.,0.,1.03));
#656=CARTESIAN_POINT('',(0.,-0.47,1.03));
#657=CARTESIAN_POINT('',(0.,-0.47,1.03));
#658=CARTESIAN_POINT('',(0.,-0.5,1.));
#659=CARTESIAN_POINT('',(0.,0.,1.));
#660=CARTESIAN_POINT('',(0.,0.,1.015));
#661=CARTESIAN_POINT('',(0.,0.,1.));
#662=CARTESIAN_POINT('',(-150.,150.,1.));
#663=CARTESIAN_POINT('',(0.,0.,1.03));
#664=CARTESIAN_POINT('',(0.,0.,1.015));
#665=CARTESIAN_POINT('',(0.,-0.47,2.5));
#666=CARTESIAN_POINT('',(0.,-0.47,2.5));
#667=CARTESIAN_POINT('',(0.,0.,2.5));
#668=CARTESIAN_POINT('',(0.,0.47,2.5));
#669=CARTESIAN_POINT('',(0.,0.47,2.5));
#670=CARTESIAN_POINT('',(0.,1.153986000925E-14,63.));
#671=CARTESIAN_POINT('',(0.,0.,2.5));
#672=CARTESIAN_POINT('',(0.,1.153986000925E-14,63.));
#673=CARTESIAN_POINT('',(0.,0.,15.));
#674=CARTESIAN_POINT('',(0.,0.6663656915459,15.));
#675=CARTESIAN_POINT('',(0.,-0.6663656915459,15.));
#676=CARTESIAN_POINT('',(0.,-0.6663656915459,15.));
#677=CARTESIAN_POINT('',(0.,0.6663656915459,15.));
#678=CARTESIAN_POINT('',(0.,0.,8.75));
#679=CARTESIAN_POINT('',(0.,0.,15.));
#680=CARTESIAN_POINT('',(0.,0.,8.75));
#681=CARTESIAN_POINT('',(0.,-6.665625486436,14.90575609613));
#682=CARTESIAN_POINT('',(0.,-0.8700705287003,16.45867036674));
#683=CARTESIAN_POINT('',(0.,0.,16.45867036674));
#684=CARTESIAN_POINT('',(0.,0.8700705287003,16.45867036674));
#685=CARTESIAN_POINT('',(0.,6.665625486436,14.90575609613));
#686=CARTESIAN_POINT('',(0.,0.,14.90575609613));
#687=CARTESIAN_POINT('',(0.,0.,16.45867036674));
#688=CARTESIAN_POINT('',(0.,0.,14.90575609613));
#689=CARTESIAN_POINT('',(0.,0.,24.40767537017));
#690=CARTESIAN_POINT('',(0.,-3.,24.40767537017));
#691=CARTESIAN_POINT('',(0.,3.,24.40767537017));
#692=CARTESIAN_POINT('',(0.,-3.,24.40767537017));
#693=CARTESIAN_POINT('',(0.,3.,24.40767537017));
#694=CARTESIAN_POINT('',(0.,0.,20.43317286846));
#695=CARTESIAN_POINT('',(0.,0.,24.40767537017));
#696=CARTESIAN_POINT('',(0.,0.,20.43317286846));
#697=CARTESIAN_POINT('',(0.,-3.,59.5));
#698=CARTESIAN_POINT('',(0.,-3.,59.5));
#699=CARTESIAN_POINT('',(0.,1.094284469466E-14,59.5));
#700=CARTESIAN_POINT('',(0.,3.,59.5));
#701=CARTESIAN_POINT('',(0.,3.,59.5));
#702=CARTESIAN_POINT('',(0.,1.153986000925E-14,63.));
#703=CARTESIAN_POINT('',(0.,1.094284469466E-14,59.5));
#704=CARTESIAN_POINT('',(0.,1.153986000925E-14,63.));
#705=CARTESIAN_POINT('',(0.,1.094284469466E-14,60.));
#706=CARTESIAN_POINT('',(0.,2.5,60.));
#707=CARTESIAN_POINT('',(0.,-2.5,60.));
#708=CARTESIAN_POINT('',(0.,-2.5,60.));
#709=CARTESIAN_POINT('',(0.,2.5,60.));
#710=CARTESIAN_POINT('',(0.,1.094284469466E-14,59.75));
#711=CARTESIAN_POINT('',(0.,1.094284469466E-14,60.));
#712=CARTESIAN_POINT('',(0.,1.094284469466E-14,59.75));
#713=CARTESIAN_POINT('',(0.,1.098876894963E-14,60.));
#714=MECHANICAL_DESIGN_GEOMETRIC_PRESENTATION_REPRESENTATION('',(#372,#373,
#374,#375,#376,#377,#378,#379,#380,#381,#382,#383,#384,#385,#386,#387,#388,
#389),#715);
#715=(
GEOMETRIC_REPRESENTATION_CONTEXT(3)
GLOBAL_UNCERTAINTY_ASSIGNED_CONTEXT((#716))
GLOBAL_UNIT_ASSIGNED_CONTEXT((#722,#718,#717))
REPRESENTATION_CONTEXT('VFHVRBD010R02N015T09','TOP_LEVEL_ASSEMBLY_PART')
);
#716=UNCERTAINTY_MEASURE_WITH_UNIT(LENGTH_MEASURE(2.E-5),#722,
'DISTANCE_ACCURACY_VALUE','Maximum Tolerance applied to model');
#717=(
NAMED_UNIT(*)
SI_UNIT($,.STERADIAN.)
SOLID_ANGLE_UNIT()
);
#718=(
CONVERSION_BASED_UNIT('DEGREE',#720)
NAMED_UNIT(#719)
PLANE_ANGLE_UNIT()
);
#719=DIMENSIONAL_EXPONENTS(0.,0.,0.,0.,0.,0.,0.);
#720=PLANE_ANGLE_MEASURE_WITH_UNIT(PLANE_ANGLE_MEASURE(0.0174532925),#721);
#721=(
NAMED_UNIT(*)
PLANE_ANGLE_UNIT()
SI_UNIT($,.RADIAN.)
);
#722=(
LENGTH_UNIT()
NAMED_UNIT(*)
SI_UNIT(.MILLI.,.METRE.)
);
ENDSEC;
END-ISO-10303-21;
