ISO-10303-21;
HEADER;
/* Generated by software containing ST-Developer
 * from STEP Tools, Inc. (www.steptools.com) 
 */
/* OPTION: using custom schema-name function */

FILE_DESCRIPTION(
/* description */ (''),
/* implementation_level */ '2;1');

FILE_NAME(
/* name */ 'VFHVRBD0100R02N004.stp',
/* time_stamp */ '2023-03-17T09:18:12+09:00',
/* author */ (''),
/* organization */ (''),
/* preprocessor_version */ 'ST-DEVELOPER v16',
/* originating_system */ 'SIEMENS PLM Software NX 10.0',
/* authorisation */ '');

FILE_SCHEMA (('AUTOMOTIVE_DESIGN { 1 0 10303 214 3 1 1 1 }'));
ENDSEC;

DATA;
#10=CONSTRUCTIVE_GEOMETRY_REPRESENTATION_RELATIONSHIP(
'supplemental geometry','',#26,#11);
#11=CONSTRUCTIVE_GEOMETRY_REPRESENTATION('supplemental geometry',(#389,
#390,#391,#392,#393,#394,#395,#396,#397,#398),#665);
#12=GEOMETRICALLY_BOUNDED_WIREFRAME_SHAPE_REPRESENTATION(
'VFHVRBD0100R02N004-None',(#27),#665);
#13=SHAPE_REPRESENTATION_RELATIONSHIP('None',
'relationship between VFHVRBD0100R02N004-None and VFHVRBD0100R02N004-N
one',#26,#15);
#14=SHAPE_REPRESENTATION_RELATIONSHIP('None',
'relationship between VFHVRBD0100R02N004-None and VFHVRBD0100R02N004-N
one',#26,#12);
#15=ADVANCED_BREP_SHAPE_REPRESENTATION('VFHVRBD0100R02N004-None',(#44,#45),
#665);
#16=SHAPE_DEFINITION_REPRESENTATION(#17,#26);
#17=PRODUCT_DEFINITION_SHAPE('','SHAPE FOR VFHVRBD0100R02N004_ASM.',#18);
#18=PRODUCT_DEFINITION('part definition','',#20,#19);
#19=PRODUCT_DEFINITION_CONTEXT('part definition',#25,'design');
#20=PRODUCT_DEFINITION_FORMATION_WITH_SPECIFIED_SOURCE(' ',' ',#22,
 .NOT_KNOWN.);
#21=PRODUCT_RELATED_PRODUCT_CATEGORY('part','',(#22));
#22=PRODUCT('VFHVRBD0100R02N004_ASM','VFHVRBD0100R02N004_ASM',
'NOT SPECIFIED',(#23));
#23=PRODUCT_CONTEXT('',#25,'mechanical');
#24=APPLICATION_PROTOCOL_DEFINITION('international standard',
'automotive_design',2010,#25);
#25=APPLICATION_CONTEXT(
'core data for automotive mechanical design processes');
#26=SHAPE_REPRESENTATION('VFHVRBD0100R02N004-None',(#387),#665);
#27=GEOMETRIC_CURVE_SET('None',(#572,#305,#306,#307,#308,#309));
#28=CONICAL_SURFACE('',#415,0.485,44.99999999999);
#29=CONICAL_SURFACE('',#419,0.485,44.99999999999);
#30=CONICAL_SURFACE('',#431,1.837222521133,15.);
#31=CONICAL_SURFACE('',#433,1.837222521133,15.);
#32=CONICAL_SURFACE('',#439,2.75,45.);
#33=CONICAL_SURFACE('',#441,2.75,45.);
#34=SURFACE_STYLE_USAGE(.BOTH.,#36);
#35=SURFACE_STYLE_USAGE(.BOTH.,#37);
#36=SURFACE_SIDE_STYLE('',(#38));
#37=SURFACE_SIDE_STYLE('',(#39));
#38=SURFACE_STYLE_FILL_AREA(#40);
#39=SURFACE_STYLE_FILL_AREA(#41);
#40=FILL_AREA_STYLE('',(#42));
#41=FILL_AREA_STYLE('',(#43));
#42=FILL_AREA_STYLE_COLOUR('',#385);
#43=FILL_AREA_STYLE_COLOUR('',#386);
#44=MANIFOLD_SOLID_BREP('CUT',#46);
#45=MANIFOLD_SOLID_BREP('NOCUT',#47);
#46=CLOSED_SHELL('',(#56,#57,#58,#59,#60,#61));
#47=CLOSED_SHELL('',(#62,#63,#64,#65,#66,#67,#68,#69,#70,#71,#72,#73,#74,
#75));
#48=TOROIDAL_SURFACE('',#409,0.3,0.2);
#49=TOROIDAL_SURFACE('',#411,0.3,0.2);
#50=TOROIDAL_SURFACE('',#427,6.47,6.);
#51=TOROIDAL_SURFACE('',#429,6.47,6.);
#52=PLANE('',#403);
#53=PLANE('',#412);
#54=PLANE('',#417);
#55=PLANE('',#442);
#56=ADVANCED_FACE('',(#82),#76,.T.);
#57=ADVANCED_FACE('',(#83),#52,.F.);
#58=ADVANCED_FACE('',(#84),#77,.T.);
#59=ADVANCED_FACE('',(#85),#48,.T.);
#60=ADVANCED_FACE('',(#86),#49,.T.);
#61=ADVANCED_FACE('',(#87),#53,.T.);
#62=ADVANCED_FACE('',(#88),#28,.T.);
#63=ADVANCED_FACE('',(#89),#54,.F.);
#64=ADVANCED_FACE('',(#90),#29,.T.);
#65=ADVANCED_FACE('',(#91),#78,.T.);
#66=ADVANCED_FACE('',(#92),#79,.T.);
#67=ADVANCED_FACE('',(#93),#50,.F.);
#68=ADVANCED_FACE('',(#94),#51,.F.);
#69=ADVANCED_FACE('',(#95),#30,.T.);
#70=ADVANCED_FACE('',(#96),#31,.T.);
#71=ADVANCED_FACE('',(#97),#80,.T.);
#72=ADVANCED_FACE('',(#98),#81,.T.);
#73=ADVANCED_FACE('',(#99),#32,.T.);
#74=ADVANCED_FACE('',(#100),#33,.T.);
#75=ADVANCED_FACE('',(#101),#55,.F.);
#76=CYLINDRICAL_SURFACE('',#401,0.5);
#77=CYLINDRICAL_SURFACE('',#405,0.5);
#78=CYLINDRICAL_SURFACE('',#421,0.47);
#79=CYLINDRICAL_SURFACE('',#423,0.47);
#80=CYLINDRICAL_SURFACE('',#435,3.);
#81=CYLINDRICAL_SURFACE('',#437,3.);
#82=FACE_OUTER_BOUND('',#102,.T.);
#83=FACE_OUTER_BOUND('',#103,.T.);
#84=FACE_OUTER_BOUND('',#104,.T.);
#85=FACE_OUTER_BOUND('',#105,.T.);
#86=FACE_OUTER_BOUND('',#106,.T.);
#87=FACE_OUTER_BOUND('',#107,.T.);
#88=FACE_OUTER_BOUND('',#108,.T.);
#89=FACE_OUTER_BOUND('',#109,.T.);
#90=FACE_OUTER_BOUND('',#110,.T.);
#91=FACE_OUTER_BOUND('',#111,.T.);
#92=FACE_OUTER_BOUND('',#112,.T.);
#93=FACE_OUTER_BOUND('',#113,.T.);
#94=FACE_OUTER_BOUND('',#114,.T.);
#95=FACE_OUTER_BOUND('',#115,.T.);
#96=FACE_OUTER_BOUND('',#116,.T.);
#97=FACE_OUTER_BOUND('',#117,.T.);
#98=FACE_OUTER_BOUND('',#118,.T.);
#99=FACE_OUTER_BOUND('',#119,.T.);
#100=FACE_OUTER_BOUND('',#120,.T.);
#101=FACE_OUTER_BOUND('',#121,.T.);
#102=EDGE_LOOP('',(#122,#123,#124,#125));
#103=EDGE_LOOP('',(#126,#127));
#104=EDGE_LOOP('',(#128,#129,#130,#131));
#105=EDGE_LOOP('',(#132,#133,#134,#135));
#106=EDGE_LOOP('',(#136,#137,#138,#139));
#107=EDGE_LOOP('',(#140,#141));
#108=EDGE_LOOP('',(#142,#143,#144,#145));
#109=EDGE_LOOP('',(#146,#147));
#110=EDGE_LOOP('',(#148,#149,#150,#151));
#111=EDGE_LOOP('',(#152,#153,#154,#155));
#112=EDGE_LOOP('',(#156,#157,#158,#159));
#113=EDGE_LOOP('',(#160,#161,#162,#163));
#114=EDGE_LOOP('',(#164,#165,#166,#167));
#115=EDGE_LOOP('',(#168,#169,#170,#171));
#116=EDGE_LOOP('',(#172,#173,#174,#175));
#117=EDGE_LOOP('',(#176,#177,#178,#179));
#118=EDGE_LOOP('',(#180,#181,#182,#183));
#119=EDGE_LOOP('',(#184,#185,#186,#187));
#120=EDGE_LOOP('',(#188,#189,#190,#191));
#121=EDGE_LOOP('',(#192,#193));
#122=ORIENTED_EDGE('',*,*,#214,.T.);
#123=ORIENTED_EDGE('',*,*,#215,.T.);
#124=ORIENTED_EDGE('',*,*,#216,.F.);
#125=ORIENTED_EDGE('',*,*,#217,.T.);
#126=ORIENTED_EDGE('',*,*,#218,.F.);
#127=ORIENTED_EDGE('',*,*,#217,.F.);
#128=ORIENTED_EDGE('',*,*,#216,.T.);
#129=ORIENTED_EDGE('',*,*,#219,.T.);
#130=ORIENTED_EDGE('',*,*,#214,.F.);
#131=ORIENTED_EDGE('',*,*,#218,.T.);
#132=ORIENTED_EDGE('',*,*,#220,.T.);
#133=ORIENTED_EDGE('',*,*,#221,.T.);
#134=ORIENTED_EDGE('',*,*,#219,.F.);
#135=ORIENTED_EDGE('',*,*,#222,.F.);
#136=ORIENTED_EDGE('',*,*,#215,.F.);
#137=ORIENTED_EDGE('',*,*,#221,.F.);
#138=ORIENTED_EDGE('',*,*,#223,.T.);
#139=ORIENTED_EDGE('',*,*,#222,.T.);
#140=ORIENTED_EDGE('',*,*,#223,.F.);
#141=ORIENTED_EDGE('',*,*,#220,.F.);
#142=ORIENTED_EDGE('',*,*,#224,.F.);
#143=ORIENTED_EDGE('',*,*,#225,.F.);
#144=ORIENTED_EDGE('',*,*,#226,.T.);
#145=ORIENTED_EDGE('',*,*,#227,.T.);
#146=ORIENTED_EDGE('',*,*,#228,.F.);
#147=ORIENTED_EDGE('',*,*,#227,.F.);
#148=ORIENTED_EDGE('',*,*,#226,.F.);
#149=ORIENTED_EDGE('',*,*,#229,.F.);
#150=ORIENTED_EDGE('',*,*,#224,.T.);
#151=ORIENTED_EDGE('',*,*,#228,.T.);
#152=ORIENTED_EDGE('',*,*,#229,.T.);
#153=ORIENTED_EDGE('',*,*,#230,.T.);
#154=ORIENTED_EDGE('',*,*,#231,.T.);
#155=ORIENTED_EDGE('',*,*,#232,.F.);
#156=ORIENTED_EDGE('',*,*,#233,.T.);
#157=ORIENTED_EDGE('',*,*,#230,.F.);
#158=ORIENTED_EDGE('',*,*,#225,.T.);
#159=ORIENTED_EDGE('',*,*,#232,.T.);
#160=ORIENTED_EDGE('',*,*,#234,.F.);
#161=ORIENTED_EDGE('',*,*,#235,.T.);
#162=ORIENTED_EDGE('',*,*,#233,.F.);
#163=ORIENTED_EDGE('',*,*,#236,.F.);
#164=ORIENTED_EDGE('',*,*,#231,.F.);
#165=ORIENTED_EDGE('',*,*,#235,.F.);
#166=ORIENTED_EDGE('',*,*,#237,.F.);
#167=ORIENTED_EDGE('',*,*,#236,.T.);
#168=ORIENTED_EDGE('',*,*,#237,.T.);
#169=ORIENTED_EDGE('',*,*,#238,.T.);
#170=ORIENTED_EDGE('',*,*,#239,.F.);
#171=ORIENTED_EDGE('',*,*,#240,.F.);
#172=ORIENTED_EDGE('',*,*,#241,.F.);
#173=ORIENTED_EDGE('',*,*,#238,.F.);
#174=ORIENTED_EDGE('',*,*,#234,.T.);
#175=ORIENTED_EDGE('',*,*,#240,.T.);
#176=ORIENTED_EDGE('',*,*,#242,.T.);
#177=ORIENTED_EDGE('',*,*,#243,.T.);
#178=ORIENTED_EDGE('',*,*,#241,.T.);
#179=ORIENTED_EDGE('',*,*,#244,.F.);
#180=ORIENTED_EDGE('',*,*,#239,.T.);
#181=ORIENTED_EDGE('',*,*,#243,.F.);
#182=ORIENTED_EDGE('',*,*,#245,.T.);
#183=ORIENTED_EDGE('',*,*,#244,.T.);
#184=ORIENTED_EDGE('',*,*,#245,.F.);
#185=ORIENTED_EDGE('',*,*,#246,.T.);
#186=ORIENTED_EDGE('',*,*,#247,.T.);
#187=ORIENTED_EDGE('',*,*,#248,.F.);
#188=ORIENTED_EDGE('',*,*,#249,.T.);
#189=ORIENTED_EDGE('',*,*,#246,.F.);
#190=ORIENTED_EDGE('',*,*,#242,.F.);
#191=ORIENTED_EDGE('',*,*,#248,.T.);
#192=ORIENTED_EDGE('',*,*,#249,.F.);
#193=ORIENTED_EDGE('',*,*,#247,.F.);
#194=VERTEX_POINT('',#589);
#195=VERTEX_POINT('',#590);
#196=VERTEX_POINT('',#592);
#197=VERTEX_POINT('',#594);
#198=VERTEX_POINT('',#602);
#199=VERTEX_POINT('',#603);
#200=VERTEX_POINT('',#611);
#201=VERTEX_POINT('',#612);
#202=VERTEX_POINT('',#614);
#203=VERTEX_POINT('',#616);
#204=VERTEX_POINT('',#624);
#205=VERTEX_POINT('',#626);
#206=VERTEX_POINT('',#632);
#207=VERTEX_POINT('',#633);
#208=VERTEX_POINT('',#640);
#209=VERTEX_POINT('',#642);
#210=VERTEX_POINT('',#648);
#211=VERTEX_POINT('',#649);
#212=VERTEX_POINT('',#656);
#213=VERTEX_POINT('',#658);
#214=EDGE_CURVE('',#194,#195,#314,.T.);
#215=EDGE_CURVE('',#195,#196,#251,.T.);
#216=EDGE_CURVE('',#197,#196,#315,.T.);
#217=EDGE_CURVE('',#197,#194,#252,.T.);
#218=EDGE_CURVE('',#194,#197,#253,.T.);
#219=EDGE_CURVE('',#196,#195,#254,.T.);
#220=EDGE_CURVE('',#198,#199,#255,.T.);
#221=EDGE_CURVE('',#199,#195,#256,.T.);
#222=EDGE_CURVE('',#198,#196,#257,.T.);
#223=EDGE_CURVE('',#199,#198,#258,.T.);
#224=EDGE_CURVE('',#200,#201,#316,.T.);
#225=EDGE_CURVE('',#202,#200,#259,.T.);
#226=EDGE_CURVE('',#202,#203,#317,.T.);
#227=EDGE_CURVE('',#203,#201,#260,.T.);
#228=EDGE_CURVE('',#201,#203,#261,.T.);
#229=EDGE_CURVE('',#200,#202,#262,.T.);
#230=EDGE_CURVE('',#202,#204,#318,.T.);
#231=EDGE_CURVE('',#204,#205,#263,.T.);
#232=EDGE_CURVE('',#200,#205,#319,.T.);
#233=EDGE_CURVE('',#205,#204,#264,.T.);
#234=EDGE_CURVE('',#206,#207,#265,.T.);
#235=EDGE_CURVE('',#206,#204,#266,.T.);
#236=EDGE_CURVE('',#207,#205,#267,.T.);
#237=EDGE_CURVE('',#207,#206,#268,.T.);
#238=EDGE_CURVE('',#206,#208,#320,.T.);
#239=EDGE_CURVE('',#209,#208,#269,.T.);
#240=EDGE_CURVE('',#207,#209,#321,.T.);
#241=EDGE_CURVE('',#208,#209,#270,.T.);
#242=EDGE_CURVE('',#210,#211,#271,.T.);
#243=EDGE_CURVE('',#211,#208,#322,.T.);
#244=EDGE_CURVE('',#210,#209,#323,.T.);
#245=EDGE_CURVE('',#211,#210,#272,.T.);
#246=EDGE_CURVE('',#211,#212,#324,.T.);
#247=EDGE_CURVE('',#212,#213,#273,.T.);
#248=EDGE_CURVE('',#210,#213,#325,.T.);
#249=EDGE_CURVE('',#213,#212,#274,.T.);
#250=CIRCLE('',#388,0.2);
#251=CIRCLE('',#399,0.5);
#252=CIRCLE('',#400,0.5);
#253=CIRCLE('',#402,0.5);
#254=CIRCLE('',#404,0.5);
#255=CIRCLE('',#406,0.3);
#256=CIRCLE('',#407,0.2);
#257=CIRCLE('',#408,0.2);
#258=CIRCLE('',#410,0.3);
#259=CIRCLE('',#413,0.47);
#260=CIRCLE('',#414,0.5);
#261=CIRCLE('',#416,0.5);
#262=CIRCLE('',#418,0.47);
#263=CIRCLE('',#420,0.47);
#264=CIRCLE('',#422,0.47);
#265=CIRCLE('',#424,0.6744450422656);
#266=CIRCLE('',#425,6.);
#267=CIRCLE('',#426,6.);
#268=CIRCLE('',#428,0.6744450422656);
#269=CIRCLE('',#430,3.);
#270=CIRCLE('',#432,3.);
#271=CIRCLE('',#434,3.);
#272=CIRCLE('',#436,3.);
#273=CIRCLE('',#438,2.5);
#274=CIRCLE('',#440,2.5);
#275=CURVE_STYLE('',#290,POSITIVE_LENGTH_MEASURE(0.18),#382);
#276=CURVE_STYLE('',#291,POSITIVE_LENGTH_MEASURE(0.18),#382);
#277=CURVE_STYLE('',#292,POSITIVE_LENGTH_MEASURE(0.18),#382);
#278=CURVE_STYLE('',#293,POSITIVE_LENGTH_MEASURE(0.18),#382);
#279=CURVE_STYLE('',#294,POSITIVE_LENGTH_MEASURE(0.18),#382);
#280=CURVE_STYLE('',#295,POSITIVE_LENGTH_MEASURE(0.13),#383);
#281=CURVE_STYLE('',#296,POSITIVE_LENGTH_MEASURE(0.13),#383);
#282=CURVE_STYLE('',#297,POSITIVE_LENGTH_MEASURE(0.13),#384);
#283=CURVE_STYLE('',#298,POSITIVE_LENGTH_MEASURE(0.13),#384);
#284=CURVE_STYLE('',#299,POSITIVE_LENGTH_MEASURE(0.13),#383);
#285=CURVE_STYLE('',#300,POSITIVE_LENGTH_MEASURE(0.13),#383);
#286=CURVE_STYLE('',#301,POSITIVE_LENGTH_MEASURE(0.13),#384);
#287=CURVE_STYLE('',#302,POSITIVE_LENGTH_MEASURE(0.13),#383);
#288=CURVE_STYLE('',#303,POSITIVE_LENGTH_MEASURE(0.13),#383);
#289=CURVE_STYLE('',#304,POSITIVE_LENGTH_MEASURE(0.13),#383);
#290=DRAUGHTING_PRE_DEFINED_CURVE_FONT('continuous');
#291=DRAUGHTING_PRE_DEFINED_CURVE_FONT('continuous');
#292=DRAUGHTING_PRE_DEFINED_CURVE_FONT('continuous');
#293=DRAUGHTING_PRE_DEFINED_CURVE_FONT('continuous');
#294=DRAUGHTING_PRE_DEFINED_CURVE_FONT('continuous');
#295=DRAUGHTING_PRE_DEFINED_CURVE_FONT('continuous');
#296=DRAUGHTING_PRE_DEFINED_CURVE_FONT('continuous');
#297=DRAUGHTING_PRE_DEFINED_CURVE_FONT('continuous');
#298=DRAUGHTING_PRE_DEFINED_CURVE_FONT('continuous');
#299=DRAUGHTING_PRE_DEFINED_CURVE_FONT('continuous');
#300=DRAUGHTING_PRE_DEFINED_CURVE_FONT('continuous');
#301=DRAUGHTING_PRE_DEFINED_CURVE_FONT('continuous');
#302=DRAUGHTING_PRE_DEFINED_CURVE_FONT('continuous');
#303=DRAUGHTING_PRE_DEFINED_CURVE_FONT('continuous');
#304=DRAUGHTING_PRE_DEFINED_CURVE_FONT('continuous');
#305=TRIMMED_CURVE('',#310,(PARAMETER_VALUE(0.)),(PARAMETER_VALUE(1.)),
 .T.,.PARAMETER.);
#306=TRIMMED_CURVE('',#311,(PARAMETER_VALUE(0.)),(PARAMETER_VALUE(1.)),
 .T.,.PARAMETER.);
#307=TRIMMED_CURVE('',#312,(PARAMETER_VALUE(0.)),(PARAMETER_VALUE(1.)),
 .T.,.PARAMETER.);
#308=TRIMMED_CURVE('',#313,(PARAMETER_VALUE(0.)),(PARAMETER_VALUE(1.)),
 .T.,.PARAMETER.);
#309=TRIMMED_CURVE('',#250,(PARAMETER_VALUE(0.)),(PARAMETER_VALUE(90.)),
 .T.,.PARAMETER.);
#310=LINE('',#573,#326);
#311=LINE('',#574,#327);
#312=LINE('',#575,#328);
#313=LINE('',#576,#329);
#314=LINE('',#588,#330);
#315=LINE('',#593,#331);
#316=LINE('',#610,#332);
#317=LINE('',#615,#333);
#318=LINE('',#623,#334);
#319=LINE('',#627,#335);
#320=LINE('',#639,#336);
#321=LINE('',#643,#337);
#322=LINE('',#650,#338);
#323=LINE('',#651,#339);
#324=LINE('',#655,#340);
#325=LINE('',#659,#341);
#326=VECTOR('',#445,0.3);
#327=VECTOR('',#446,0.8);
#328=VECTOR('',#447,0.5);
#329=VECTOR('',#448,1.);
#330=VECTOR('',#471,1.);
#331=VECTOR('',#474,1.);
#332=VECTOR('',#501,1.);
#333=VECTOR('',#504,1.);
#334=VECTOR('',#517,1.);
#335=VECTOR('',#520,1.);
#336=VECTOR('',#539,1.);
#337=VECTOR('',#542,1.);
#338=VECTOR('',#551,1.);
#339=VECTOR('',#552,1.);
#340=VECTOR('',#559,1.);
#341=VECTOR('',#562,1.);
#342=PRESENTATION_LAYER_ASSIGNMENT('1','Layer 1',(#572,#305,#306,#307,#308,
#309,#389,#390,#393,#394,#395,#396,#397,#398,#44,#45));
#343=PRESENTATION_LAYER_ASSIGNMENT('2','Layer 2',(#391,#392));
#344=STYLED_ITEM('',(#362),#572);
#345=STYLED_ITEM('',(#363),#305);
#346=STYLED_ITEM('',(#364),#306);
#347=STYLED_ITEM('',(#365),#307);
#348=STYLED_ITEM('',(#366),#308);
#349=STYLED_ITEM('',(#367),#309);
#350=STYLED_ITEM('',(#368),#389);
#351=STYLED_ITEM('',(#369),#390);
#352=STYLED_ITEM('',(#370),#391);
#353=STYLED_ITEM('',(#371),#392);
#354=STYLED_ITEM('',(#372),#393);
#355=STYLED_ITEM('',(#373),#394);
#356=STYLED_ITEM('',(#374),#395);
#357=STYLED_ITEM('',(#375),#396);
#358=STYLED_ITEM('',(#376),#397);
#359=STYLED_ITEM('',(#377),#398);
#360=STYLED_ITEM('',(#378),#44);
#361=STYLED_ITEM('',(#379),#45);
#362=PRESENTATION_STYLE_ASSIGNMENT((#380));
#363=PRESENTATION_STYLE_ASSIGNMENT((#275));
#364=PRESENTATION_STYLE_ASSIGNMENT((#276));
#365=PRESENTATION_STYLE_ASSIGNMENT((#277));
#366=PRESENTATION_STYLE_ASSIGNMENT((#278));
#367=PRESENTATION_STYLE_ASSIGNMENT((#279));
#368=PRESENTATION_STYLE_ASSIGNMENT((#280));
#369=PRESENTATION_STYLE_ASSIGNMENT((#281));
#370=PRESENTATION_STYLE_ASSIGNMENT((#282));
#371=PRESENTATION_STYLE_ASSIGNMENT((#283));
#372=PRESENTATION_STYLE_ASSIGNMENT((#284));
#373=PRESENTATION_STYLE_ASSIGNMENT((#285));
#374=PRESENTATION_STYLE_ASSIGNMENT((#286));
#375=PRESENTATION_STYLE_ASSIGNMENT((#287));
#376=PRESENTATION_STYLE_ASSIGNMENT((#288));
#377=PRESENTATION_STYLE_ASSIGNMENT((#289));
#378=PRESENTATION_STYLE_ASSIGNMENT((#34));
#379=PRESENTATION_STYLE_ASSIGNMENT((#35));
#380=POINT_STYLE('',#381,POSITIVE_LENGTH_MEASURE(3.),#382);
#381=PRE_DEFINED_POINT_MARKER_SYMBOL('plus');
#382=COLOUR_RGB('Medium Royal',0.2,0.4,0.8);
#383=COLOUR_RGB('Strong Stone',0.576470588235294,0.54508278019379,0.392156862745098);
#384=COLOUR_RGB('Medium Umber',0.372533760585946,0.313725490196078,0.270572976272221);
#385=COLOUR_RGB('cutting part',0.8,0.8,0.8);
#386=COLOUR_RGB('non-cutting part and shank',0.501960784313725,0.501960784313725,
0.501960784313725);
#387=AXIS2_PLACEMENT_3D('',#571,#443,#444);
#388=AXIS2_PLACEMENT_3D('',#577,#449,#450);
#389=AXIS2_PLACEMENT_3D('',#578,#451,#452);
#390=AXIS2_PLACEMENT_3D('',#579,#453,#454);
#391=AXIS2_PLACEMENT_3D('CIP',#580,#455,#456);
#392=AXIS2_PLACEMENT_3D('PCS',#581,#457,#458);
#393=AXIS2_PLACEMENT_3D('MCS',#582,#459,#460);
#394=AXIS2_PLACEMENT_3D('',#583,#461,#462);
#395=AXIS2_PLACEMENT_3D('STEP_TEMP_EM22_1',#584,#463,#464);
#396=AXIS2_PLACEMENT_3D('',#585,#465,#466);
#397=AXIS2_PLACEMENT_3D('',#586,#467,#468);
#398=AXIS2_PLACEMENT_3D('',#587,#469,#470);
#399=AXIS2_PLACEMENT_3D('',#591,#472,#473);
#400=AXIS2_PLACEMENT_3D('',#595,#475,#476);
#401=AXIS2_PLACEMENT_3D('',#596,#477,#478);
#402=AXIS2_PLACEMENT_3D('',#597,#479,#480);
#403=AXIS2_PLACEMENT_3D('',#598,#481,#482);
#404=AXIS2_PLACEMENT_3D('',#599,#483,#484);
#405=AXIS2_PLACEMENT_3D('',#600,#485,#486);
#406=AXIS2_PLACEMENT_3D('',#601,#487,#488);
#407=AXIS2_PLACEMENT_3D('',#604,#489,#490);
#408=AXIS2_PLACEMENT_3D('',#605,#491,#492);
#409=AXIS2_PLACEMENT_3D('',#606,#493,#494);
#410=AXIS2_PLACEMENT_3D('',#607,#495,#496);
#411=AXIS2_PLACEMENT_3D('',#608,#497,#498);
#412=AXIS2_PLACEMENT_3D('',#609,#499,#500);
#413=AXIS2_PLACEMENT_3D('',#613,#502,#503);
#414=AXIS2_PLACEMENT_3D('',#617,#505,#506);
#415=AXIS2_PLACEMENT_3D('',#618,#507,#508);
#416=AXIS2_PLACEMENT_3D('',#619,#509,#510);
#417=AXIS2_PLACEMENT_3D('',#620,#511,#512);
#418=AXIS2_PLACEMENT_3D('',#621,#513,#514);
#419=AXIS2_PLACEMENT_3D('',#622,#515,#516);
#420=AXIS2_PLACEMENT_3D('',#625,#518,#519);
#421=AXIS2_PLACEMENT_3D('',#628,#521,#522);
#422=AXIS2_PLACEMENT_3D('',#629,#523,#524);
#423=AXIS2_PLACEMENT_3D('',#630,#525,#526);
#424=AXIS2_PLACEMENT_3D('',#631,#527,#528);
#425=AXIS2_PLACEMENT_3D('',#634,#529,#530);
#426=AXIS2_PLACEMENT_3D('',#635,#531,#532);
#427=AXIS2_PLACEMENT_3D('',#636,#533,#534);
#428=AXIS2_PLACEMENT_3D('',#637,#535,#536);
#429=AXIS2_PLACEMENT_3D('',#638,#537,#538);
#430=AXIS2_PLACEMENT_3D('',#641,#540,#541);
#431=AXIS2_PLACEMENT_3D('',#644,#543,#544);
#432=AXIS2_PLACEMENT_3D('',#645,#545,#546);
#433=AXIS2_PLACEMENT_3D('',#646,#547,#548);
#434=AXIS2_PLACEMENT_3D('',#647,#549,#550);
#435=AXIS2_PLACEMENT_3D('',#652,#553,#554);
#436=AXIS2_PLACEMENT_3D('',#653,#555,#556);
#437=AXIS2_PLACEMENT_3D('',#654,#557,#558);
#438=AXIS2_PLACEMENT_3D('',#657,#560,#561);
#439=AXIS2_PLACEMENT_3D('',#660,#563,#564);
#440=AXIS2_PLACEMENT_3D('',#661,#565,#566);
#441=AXIS2_PLACEMENT_3D('',#662,#567,#568);
#442=AXIS2_PLACEMENT_3D('',#663,#569,#570);
#443=DIRECTION('',(0.,0.,1.));
#444=DIRECTION('',(1.,0.,0.));
#445=DIRECTION('',(-1.,0.,0.));
#446=DIRECTION('',(0.,0.,1.));
#447=DIRECTION('',(1.,0.,0.));
#448=DIRECTION('',(0.,0.,-1.));
#449=DIRECTION('',(0.,1.,0.));
#450=DIRECTION('',(0.,0.,-1.));
#451=DIRECTION('',(0.,0.,1.));
#452=DIRECTION('',(1.,0.,0.));
#453=DIRECTION('',(0.,0.,1.));
#454=DIRECTION('',(1.,0.,0.));
#455=DIRECTION('',(0.,0.,1.));
#456=DIRECTION('',(1.,0.,0.));
#457=DIRECTION('',(0.,0.,1.));
#458=DIRECTION('',(1.,0.,0.));
#459=DIRECTION('',(0.,0.,1.));
#460=DIRECTION('',(1.,0.,0.));
#461=DIRECTION('',(0.,0.,1.));
#462=DIRECTION('',(1.,0.,0.));
#463=DIRECTION('',(0.,0.,1.));
#464=DIRECTION('',(1.,0.,0.));
#465=DIRECTION('',(0.,0.,1.));
#466=DIRECTION('',(1.,0.,0.));
#467=DIRECTION('',(0.,0.,1.));
#468=DIRECTION('',(1.,0.,0.));
#469=DIRECTION('',(0.,0.,1.));
#470=DIRECTION('',(1.,0.,0.));
#471=DIRECTION('',(0.,0.,-1.));
#472=DIRECTION('',(0.,0.,1.));
#473=DIRECTION('',(0.,-1.,0.));
#474=DIRECTION('',(0.,0.,-1.));
#475=DIRECTION('',(0.,0.,-1.));
#476=DIRECTION('',(0.,1.,0.));
#477=DIRECTION('',(0.,0.,-1.));
#478=DIRECTION('',(0.,1.,0.));
#479=DIRECTION('',(0.,0.,-1.));
#480=DIRECTION('',(0.,-1.,0.));
#481=DIRECTION('',(0.,0.,-1.));
#482=DIRECTION('',(1.,0.,0.));
#483=DIRECTION('',(0.,0.,1.));
#484=DIRECTION('',(0.,1.,0.));
#485=DIRECTION('',(0.,0.,-1.));
#486=DIRECTION('',(0.,1.,0.));
#487=DIRECTION('',(0.,0.,1.));
#488=DIRECTION('',(0.,1.,0.));
#489=DIRECTION('',(-1.,0.,0.));
#490=DIRECTION('',(0.,-1.,0.));
#491=DIRECTION('',(1.,0.,0.));
#492=DIRECTION('',(0.,1.,0.));
#493=DIRECTION('',(0.,0.,-1.));
#494=DIRECTION('',(0.,1.,0.));
#495=DIRECTION('',(0.,0.,1.));
#496=DIRECTION('',(0.,-1.,0.));
#497=DIRECTION('',(0.,0.,-1.));
#498=DIRECTION('',(0.,1.,0.));
#499=DIRECTION('',(0.,0.,-1.));
#500=DIRECTION('',(0.,1.,0.));
#501=DIRECTION('',(0.,0.707106781186498,-0.707106781186598));
#502=DIRECTION('',(0.,0.,1.));
#503=DIRECTION('',(0.,-1.,0.));
#504=DIRECTION('',(0.,-0.707106781186598,-0.707106781186498));
#505=DIRECTION('',(0.,0.,1.));
#506=DIRECTION('',(0.,-1.,0.));
#507=DIRECTION('',(0.,0.,-1.));
#508=DIRECTION('',(0.,1.,-1.17037071648726E-17));
#509=DIRECTION('',(0.,0.,1.));
#510=DIRECTION('',(0.,1.,0.));
#511=DIRECTION('',(0.,0.,1.));
#512=DIRECTION('',(-1.,0.,0.));
#513=DIRECTION('',(0.,0.,1.));
#514=DIRECTION('',(0.,1.,0.));
#515=DIRECTION('',(0.,0.,-1.));
#516=DIRECTION('',(0.,1.,-1.17037071648726E-17));
#517=DIRECTION('',(0.,0.,1.));
#518=DIRECTION('',(0.,0.,-1.));
#519=DIRECTION('',(0.,-1.,0.));
#520=DIRECTION('',(0.,0.,1.));
#521=DIRECTION('',(0.,0.,-1.));
#522=DIRECTION('',(0.,1.,0.));
#523=DIRECTION('',(0.,0.,-1.));
#524=DIRECTION('',(0.,1.,0.));
#525=DIRECTION('',(0.,0.,-1.));
#526=DIRECTION('',(0.,1.,0.));
#527=DIRECTION('',(0.,0.,1.));
#528=DIRECTION('',(0.,-1.,0.));
#529=DIRECTION('',(-1.,0.,0.));
#530=DIRECTION('',(0.,0.965925826289076,0.258819045102493));
#531=DIRECTION('',(1.,0.,0.));
#532=DIRECTION('',(0.,-0.965925826289076,0.258819045102493));
#533=DIRECTION('',(0.,0.,-1.));
#534=DIRECTION('',(0.,1.,0.));
#535=DIRECTION('',(0.,0.,1.));
#536=DIRECTION('',(0.,1.,0.));
#537=DIRECTION('',(0.,0.,-1.));
#538=DIRECTION('',(0.,1.,0.));
#539=DIRECTION('',(0.,-0.258819045102493,0.965925826289076));
#540=DIRECTION('',(0.,0.,1.));
#541=DIRECTION('',(0.,1.,0.));
#542=DIRECTION('',(0.,0.258819045102493,0.965925826289076));
#543=DIRECTION('',(0.,0.,1.));
#544=DIRECTION('',(0.,-1.,1.35029753080635E-16));
#545=DIRECTION('',(0.,0.,1.));
#546=DIRECTION('',(0.,-1.,0.));
#547=DIRECTION('',(0.,0.,1.));
#548=DIRECTION('',(0.,-1.,1.35029753080635E-16));
#549=DIRECTION('',(0.,0.,-1.));
#550=DIRECTION('',(0.,1.,0.));
#551=DIRECTION('',(0.,0.,-1.));
#552=DIRECTION('',(0.,0.,-1.));
#553=DIRECTION('',(0.,0.,-1.));
#554=DIRECTION('',(0.,1.,0.));
#555=DIRECTION('',(0.,0.,-1.));
#556=DIRECTION('',(0.,-1.,0.));
#557=DIRECTION('',(0.,0.,-1.));
#558=DIRECTION('',(0.,1.,0.));
#559=DIRECTION('',(0.,0.707106781186547,0.707106781186547));
#560=DIRECTION('',(0.,0.,-1.));
#561=DIRECTION('',(0.,-1.,0.));
#562=DIRECTION('',(0.,-0.707106781186547,0.707106781186547));
#563=DIRECTION('',(0.,0.,-1.));
#564=DIRECTION('',(0.,1.,-3.45993213857254E-17));
#565=DIRECTION('',(0.,0.,-1.));
#566=DIRECTION('',(0.,1.,0.));
#567=DIRECTION('',(0.,0.,-1.));
#568=DIRECTION('',(0.,1.,-3.45993213857254E-17));
#569=DIRECTION('',(0.,0.,-1.));
#570=DIRECTION('',(0.,1.,0.));
#571=CARTESIAN_POINT('',(0.,0.,0.));
#572=CARTESIAN_POINT('CRP',(-0.5,0.,0.));
#573=CARTESIAN_POINT('',(0.,0.,0.));
#574=CARTESIAN_POINT('',(-0.5,0.,0.2));
#575=CARTESIAN_POINT('',(-0.5,0.,1.));
#576=CARTESIAN_POINT('',(0.,0.,1.));
#577=CARTESIAN_POINT('',(-0.3,0.,0.2));
#578=CARTESIAN_POINT('',(0.,0.,0.));
#579=CARTESIAN_POINT('',(0.,0.,0.));
#580=CARTESIAN_POINT('',(0.,0.,0.));
#581=CARTESIAN_POINT('',(0.,0.,60.));
#582=CARTESIAN_POINT('',(0.,0.,42.));
#583=CARTESIAN_POINT('',(0.,0.,0.));
#584=CARTESIAN_POINT('',(0.,0.,0.));
#585=CARTESIAN_POINT('',(0.,0.,0.));
#586=CARTESIAN_POINT('',(0.,0.,0.));
#587=CARTESIAN_POINT('',(0.,0.,0.));
#588=CARTESIAN_POINT('',(0.,-0.5,1.));
#589=CARTESIAN_POINT('',(0.,-0.5,1.));
#590=CARTESIAN_POINT('',(0.,-0.5,0.2));
#591=CARTESIAN_POINT('',(0.,-1.097700235125E-14,0.2));
#592=CARTESIAN_POINT('',(0.,0.5,0.2));
#593=CARTESIAN_POINT('',(0.,0.5,1.));
#594=CARTESIAN_POINT('',(0.,0.5,1.));
#595=CARTESIAN_POINT('',(0.,0.,1.));
#596=CARTESIAN_POINT('',(0.,0.,63.));
#597=CARTESIAN_POINT('',(0.,0.,1.));
#598=CARTESIAN_POINT('',(150.,150.,1.));
#599=CARTESIAN_POINT('',(0.,-1.097700235125E-14,0.2));
#600=CARTESIAN_POINT('',(0.,0.,63.));
#601=CARTESIAN_POINT('',(0.,-1.097700235125E-14,0.));
#602=CARTESIAN_POINT('',(0.,0.3,0.));
#603=CARTESIAN_POINT('',(0.,-0.3,0.));
#604=CARTESIAN_POINT('',(0.,-0.3,0.2));
#605=CARTESIAN_POINT('',(0.,0.3,0.2));
#606=CARTESIAN_POINT('',(0.,-1.097700235125E-14,0.2));
#607=CARTESIAN_POINT('',(0.,-1.097700235125E-14,0.));
#608=CARTESIAN_POINT('',(0.,-1.097700235125E-14,0.2));
#609=CARTESIAN_POINT('',(0.,-1.101374175523E-14,0.));
#610=CARTESIAN_POINT('',(0.,0.47,1.03));
#611=CARTESIAN_POINT('',(0.,0.47,1.03));
#612=CARTESIAN_POINT('',(0.,0.5,1.));
#613=CARTESIAN_POINT('',(0.,-1.082728928006E-14,1.03));
#614=CARTESIAN_POINT('',(0.,-0.47,1.03));
#615=CARTESIAN_POINT('',(0.,-0.47,1.03));
#616=CARTESIAN_POINT('',(0.,-0.5,1.));
#617=CARTESIAN_POINT('',(0.,-1.082728928006E-14,1.));
#618=CARTESIAN_POINT('',(0.,-1.082728928006E-14,1.015));
#619=CARTESIAN_POINT('',(0.,-1.082728928006E-14,1.));
#620=CARTESIAN_POINT('',(-150.,150.,1.));
#621=CARTESIAN_POINT('',(0.,-1.082728928006E-14,1.03));
#622=CARTESIAN_POINT('',(0.,-1.082728928006E-14,1.015));
#623=CARTESIAN_POINT('',(0.,-0.47,3.400750469337));
#624=CARTESIAN_POINT('',(0.,-0.47,3.400750469337));
#625=CARTESIAN_POINT('',(0.,-1.038903402868E-14,3.400750469337));
#626=CARTESIAN_POINT('',(0.,0.47,3.400750469337));
#627=CARTESIAN_POINT('',(0.,0.47,3.400750469337));
#628=CARTESIAN_POINT('',(0.,0.,63.));
#629=CARTESIAN_POINT('',(0.,-1.038903402868E-14,3.400750469337));
#630=CARTESIAN_POINT('',(0.,0.,63.));
#631=CARTESIAN_POINT('',(0.,-1.038903402868E-14,4.953664739952));
#632=CARTESIAN_POINT('',(0.,-0.6744450422656,4.953664739952));
#633=CARTESIAN_POINT('',(0.,0.6744450422655,4.953664739952));
#634=CARTESIAN_POINT('',(0.,-6.47,3.400750469337));
#635=CARTESIAN_POINT('',(0.,6.47,3.400750469337));
#636=CARTESIAN_POINT('',(0.,-1.038903402868E-14,3.400750469337));
#637=CARTESIAN_POINT('',(0.,-1.038903402868E-14,4.953664739952));
#638=CARTESIAN_POINT('',(0.,-1.038903402868E-14,3.400750469337));
#639=CARTESIAN_POINT('',(0.,-3.,13.63275399801));
#640=CARTESIAN_POINT('',(0.,-3.,13.63275399801));
#641=CARTESIAN_POINT('',(0.,0.,13.63275399801));
#642=CARTESIAN_POINT('',(0.,3.,13.63275399801));
#643=CARTESIAN_POINT('',(0.,3.,13.63275399801));
#644=CARTESIAN_POINT('',(0.,0.,9.293209368981));
#645=CARTESIAN_POINT('',(0.,0.,13.63275399801));
#646=CARTESIAN_POINT('',(0.,0.,9.293209368981));
#647=CARTESIAN_POINT('',(0.,0.,59.5));
#648=CARTESIAN_POINT('',(0.,3.,59.5));
#649=CARTESIAN_POINT('',(0.,-3.,59.5));
#650=CARTESIAN_POINT('',(0.,-3.,59.5));
#651=CARTESIAN_POINT('',(0.,3.,59.5));
#652=CARTESIAN_POINT('',(0.,0.,63.));
#653=CARTESIAN_POINT('',(0.,0.,59.5));
#654=CARTESIAN_POINT('',(0.,0.,63.));
#655=CARTESIAN_POINT('',(0.,-2.5,60.));
#656=CARTESIAN_POINT('',(0.,-2.5,60.));
#657=CARTESIAN_POINT('',(0.,0.,60.));
#658=CARTESIAN_POINT('',(0.,2.5,60.));
#659=CARTESIAN_POINT('',(0.,2.5,60.));
#660=CARTESIAN_POINT('',(0.,0.,59.75));
#661=CARTESIAN_POINT('',(0.,0.,60.));
#662=CARTESIAN_POINT('',(0.,0.,59.75));
#663=CARTESIAN_POINT('',(0.,0.,60.));
#664=MECHANICAL_DESIGN_GEOMETRIC_PRESENTATION_REPRESENTATION('',(#344,#345,
#346,#347,#348,#349,#350,#351,#352,#353,#354,#355,#356,#357,#358,#359,#360,
#361),#665);
#665=(
GEOMETRIC_REPRESENTATION_CONTEXT(3)
GLOBAL_UNCERTAINTY_ASSIGNED_CONTEXT((#666))
GLOBAL_UNIT_ASSIGNED_CONTEXT((#672,#668,#667))
REPRESENTATION_CONTEXT('VFHVRBD0100R02N004','TOP_LEVEL_ASSEMBLY_PART')
);
#666=UNCERTAINTY_MEASURE_WITH_UNIT(LENGTH_MEASURE(2.E-5),#672,
'DISTANCE_ACCURACY_VALUE','Maximum Tolerance applied to model');
#667=(
NAMED_UNIT(*)
SI_UNIT($,.STERADIAN.)
SOLID_ANGLE_UNIT()
);
#668=(
CONVERSION_BASED_UNIT('DEGREE',#670)
NAMED_UNIT(#669)
PLANE_ANGLE_UNIT()
);
#669=DIMENSIONAL_EXPONENTS(0.,0.,0.,0.,0.,0.,0.);
#670=PLANE_ANGLE_MEASURE_WITH_UNIT(PLANE_ANGLE_MEASURE(0.0174532925),#671);
#671=(
NAMED_UNIT(*)
PLANE_ANGLE_UNIT()
SI_UNIT($,.RADIAN.)
);
#672=(
LENGTH_UNIT()
NAMED_UNIT(*)
SI_UNIT(.MILLI.,.METRE.)
);
ENDSEC;
END-ISO-10303-21;
