ISO-10303-21;
HEADER;
/* Generated by software containing ST-Developer
 * from STEP Tools, Inc. (www.steptools.com) 
 */
/* OPTION: using custom schema-name function */

FILE_DESCRIPTION(
/* description */ (''),
/* implementation_level */ '2;1');

FILE_NAME(
/* name */ 'MMS0310X3DB.stp',
/* time_stamp */ '2023-03-08T09:16:52+09:00',
/* author */ (''),
/* organization */ (''),
/* preprocessor_version */ 'ST-DEVELOPER v16',
/* originating_system */ 'SIEMENS PLM Software NX 10.0',
/* authorisation */ '');

FILE_SCHEMA (('AUTOMOTIVE_DESIGN { 1 0 10303 214 3 1 1 1 }'));
ENDSEC;

DATA;
#10=CONSTRUCTIVE_GEOMETRY_REPRESENTATION_RELATIONSHIP(
'supplemental geometry','',#26,#11);
#11=CONSTRUCTIVE_GEOMETRY_REPRESENTATION('supplemental geometry',(#317,
#318,#319,#320,#321,#322,#323,#324,#325,#326),#525);
#12=GEOMETRICALLY_BOUNDED_WIREFRAME_SHAPE_REPRESENTATION(
'MMS0310X3DB-None',(#27),#525);
#13=SHAPE_REPRESENTATION_RELATIONSHIP('None',
'relationship between MMS0310X3DB-None and MMS0310X3DB-None',#26,#15);
#14=SHAPE_REPRESENTATION_RELATIONSHIP('None',
'relationship between MMS0310X3DB-None and MMS0310X3DB-None',#26,#12);
#15=ADVANCED_BREP_SHAPE_REPRESENTATION('MMS0310X3DB-None',(#38,#39),#525);
#16=SHAPE_DEFINITION_REPRESENTATION(#17,#26);
#17=PRODUCT_DEFINITION_SHAPE('','SHAPE FOR MMS0310X3DB_ASM.',#18);
#18=PRODUCT_DEFINITION('part definition','',#20,#19);
#19=PRODUCT_DEFINITION_CONTEXT('part definition',#25,'design');
#20=PRODUCT_DEFINITION_FORMATION_WITH_SPECIFIED_SOURCE(' ',' ',#22,
 .NOT_KNOWN.);
#21=PRODUCT_RELATED_PRODUCT_CATEGORY('part','',(#22));
#22=PRODUCT('MMS0310X3DB_ASM','MMS0310X3DB_ASM','NOT SPECIFIED',(#23));
#23=PRODUCT_CONTEXT('',#25,'mechanical');
#24=APPLICATION_PROTOCOL_DEFINITION('international standard',
'automotive_design',2010,#25);
#25=APPLICATION_CONTEXT(
'core data for automotive mechanical design processes');
#26=SHAPE_REPRESENTATION('MMS0310X3DB-None',(#316),#525);
#27=GEOMETRIC_CURVE_SET('None',(#453,#241,#242,#243,#244));
#28=SURFACE_STYLE_USAGE(.BOTH.,#30);
#29=SURFACE_STYLE_USAGE(.BOTH.,#31);
#30=SURFACE_SIDE_STYLE('',(#32));
#31=SURFACE_SIDE_STYLE('',(#33));
#32=SURFACE_STYLE_FILL_AREA(#34);
#33=SURFACE_STYLE_FILL_AREA(#35);
#34=FILL_AREA_STYLE('',(#36));
#35=FILL_AREA_STYLE('',(#37));
#36=FILL_AREA_STYLE_COLOUR('',#211);
#37=FILL_AREA_STYLE_COLOUR('',#212);
#38=MANIFOLD_SOLID_BREP('CUT',#40);
#39=MANIFOLD_SOLID_BREP('NOCUT',#41);
#40=CLOSED_SHELL('',(#51,#52,#53,#54,#55));
#41=CLOSED_SHELL('',(#56,#57,#58,#59,#60,#61,#62,#63,#64,#65));
#42=CONICAL_SURFACE('',#334,0.7905,70.);
#43=CONICAL_SURFACE('',#335,0.7905,70.);
#44=CONICAL_SURFACE('',#344,2.274999999999,15.);
#45=CONICAL_SURFACE('',#346,2.274999999999,15.);
#46=CONICAL_SURFACE('',#352,2.55,45.);
#47=CONICAL_SURFACE('',#354,2.55,45.);
#48=PLANE('',#331);
#49=PLANE('',#340);
#50=PLANE('',#355);
#51=ADVANCED_FACE('',(#72),#66,.T.);
#52=ADVANCED_FACE('',(#73),#48,.F.);
#53=ADVANCED_FACE('',(#74),#67,.T.);
#54=ADVANCED_FACE('',(#75),#42,.T.);
#55=ADVANCED_FACE('',(#76),#43,.T.);
#56=ADVANCED_FACE('',(#77),#68,.T.);
#57=ADVANCED_FACE('',(#78),#49,.F.);
#58=ADVANCED_FACE('',(#79),#69,.T.);
#59=ADVANCED_FACE('',(#80),#44,.T.);
#60=ADVANCED_FACE('',(#81),#45,.T.);
#61=ADVANCED_FACE('',(#82),#70,.T.);
#62=ADVANCED_FACE('',(#83),#71,.T.);
#63=ADVANCED_FACE('',(#84),#46,.T.);
#64=ADVANCED_FACE('',(#85),#47,.T.);
#65=ADVANCED_FACE('',(#86),#50,.F.);
#66=CYLINDRICAL_SURFACE('',#329,1.55);
#67=CYLINDRICAL_SURFACE('',#333,1.55);
#68=CYLINDRICAL_SURFACE('',#338,1.55);
#69=CYLINDRICAL_SURFACE('',#342,1.55);
#70=CYLINDRICAL_SURFACE('',#348,3.);
#71=CYLINDRICAL_SURFACE('',#350,3.);
#72=FACE_OUTER_BOUND('',#87,.T.);
#73=FACE_OUTER_BOUND('',#88,.T.);
#74=FACE_OUTER_BOUND('',#89,.T.);
#75=FACE_OUTER_BOUND('',#90,.T.);
#76=FACE_OUTER_BOUND('',#91,.T.);
#77=FACE_OUTER_BOUND('',#92,.T.);
#78=FACE_OUTER_BOUND('',#93,.T.);
#79=FACE_OUTER_BOUND('',#94,.T.);
#80=FACE_OUTER_BOUND('',#95,.T.);
#81=FACE_OUTER_BOUND('',#96,.T.);
#82=FACE_OUTER_BOUND('',#97,.T.);
#83=FACE_OUTER_BOUND('',#98,.T.);
#84=FACE_OUTER_BOUND('',#99,.T.);
#85=FACE_OUTER_BOUND('',#100,.T.);
#86=FACE_OUTER_BOUND('',#101,.T.);
#87=EDGE_LOOP('',(#116,#117,#118,#119));
#88=EDGE_LOOP('',(#120,#121));
#89=EDGE_LOOP('',(#122,#123,#124,#125));
#90=EDGE_LOOP('',(#126,#127,#128));
#91=EDGE_LOOP('',(#129,#130,#131));
#92=EDGE_LOOP('',(#132,#133,#134,#135));
#93=EDGE_LOOP('',(#136,#137));
#94=EDGE_LOOP('',(#138,#139,#140,#141));
#95=EDGE_LOOP('',(#142,#143,#144,#145));
#96=EDGE_LOOP('',(#146,#147,#148,#149));
#97=EDGE_LOOP('',(#150,#151,#152,#153));
#98=EDGE_LOOP('',(#154,#155,#156,#157));
#99=EDGE_LOOP('',(#158,#159,#160,#161));
#100=EDGE_LOOP('',(#162,#163,#164,#165));
#101=EDGE_LOOP('',(#166,#167));
#102=CIRCLE('',#327,1.55);
#103=CIRCLE('',#328,1.55);
#104=CIRCLE('',#330,1.55);
#105=CIRCLE('',#332,1.55);
#106=CIRCLE('',#336,1.549999999999);
#107=CIRCLE('',#337,1.55);
#108=CIRCLE('',#339,1.55);
#109=CIRCLE('',#341,1.549999999999);
#110=CIRCLE('',#343,2.999999999998);
#111=CIRCLE('',#345,2.999999999998);
#112=CIRCLE('',#347,3.);
#113=CIRCLE('',#349,3.);
#114=CIRCLE('',#351,2.1);
#115=CIRCLE('',#353,2.1);
#116=ORIENTED_EDGE('',*,*,#183,.T.);
#117=ORIENTED_EDGE('',*,*,#184,.T.);
#118=ORIENTED_EDGE('',*,*,#185,.F.);
#119=ORIENTED_EDGE('',*,*,#186,.T.);
#120=ORIENTED_EDGE('',*,*,#187,.F.);
#121=ORIENTED_EDGE('',*,*,#186,.F.);
#122=ORIENTED_EDGE('',*,*,#185,.T.);
#123=ORIENTED_EDGE('',*,*,#188,.T.);
#124=ORIENTED_EDGE('',*,*,#183,.F.);
#125=ORIENTED_EDGE('',*,*,#187,.T.);
#126=ORIENTED_EDGE('',*,*,#189,.T.);
#127=ORIENTED_EDGE('',*,*,#188,.F.);
#128=ORIENTED_EDGE('',*,*,#190,.F.);
#129=ORIENTED_EDGE('',*,*,#184,.F.);
#130=ORIENTED_EDGE('',*,*,#189,.F.);
#131=ORIENTED_EDGE('',*,*,#190,.T.);
#132=ORIENTED_EDGE('',*,*,#191,.F.);
#133=ORIENTED_EDGE('',*,*,#192,.T.);
#134=ORIENTED_EDGE('',*,*,#193,.T.);
#135=ORIENTED_EDGE('',*,*,#194,.T.);
#136=ORIENTED_EDGE('',*,*,#195,.F.);
#137=ORIENTED_EDGE('',*,*,#194,.F.);
#138=ORIENTED_EDGE('',*,*,#193,.F.);
#139=ORIENTED_EDGE('',*,*,#196,.T.);
#140=ORIENTED_EDGE('',*,*,#191,.T.);
#141=ORIENTED_EDGE('',*,*,#195,.T.);
#142=ORIENTED_EDGE('',*,*,#196,.F.);
#143=ORIENTED_EDGE('',*,*,#197,.T.);
#144=ORIENTED_EDGE('',*,*,#198,.F.);
#145=ORIENTED_EDGE('',*,*,#199,.F.);
#146=ORIENTED_EDGE('',*,*,#200,.F.);
#147=ORIENTED_EDGE('',*,*,#197,.F.);
#148=ORIENTED_EDGE('',*,*,#192,.F.);
#149=ORIENTED_EDGE('',*,*,#199,.T.);
#150=ORIENTED_EDGE('',*,*,#201,.T.);
#151=ORIENTED_EDGE('',*,*,#202,.T.);
#152=ORIENTED_EDGE('',*,*,#200,.T.);
#153=ORIENTED_EDGE('',*,*,#203,.F.);
#154=ORIENTED_EDGE('',*,*,#198,.T.);
#155=ORIENTED_EDGE('',*,*,#202,.F.);
#156=ORIENTED_EDGE('',*,*,#204,.T.);
#157=ORIENTED_EDGE('',*,*,#203,.T.);
#158=ORIENTED_EDGE('',*,*,#204,.F.);
#159=ORIENTED_EDGE('',*,*,#205,.T.);
#160=ORIENTED_EDGE('',*,*,#206,.T.);
#161=ORIENTED_EDGE('',*,*,#207,.F.);
#162=ORIENTED_EDGE('',*,*,#208,.T.);
#163=ORIENTED_EDGE('',*,*,#205,.F.);
#164=ORIENTED_EDGE('',*,*,#201,.F.);
#165=ORIENTED_EDGE('',*,*,#207,.T.);
#166=ORIENTED_EDGE('',*,*,#208,.F.);
#167=ORIENTED_EDGE('',*,*,#206,.F.);
#168=VERTEX_POINT('',#469);
#169=VERTEX_POINT('',#470);
#170=VERTEX_POINT('',#472);
#171=VERTEX_POINT('',#474);
#172=VERTEX_POINT('',#482);
#173=VERTEX_POINT('',#487);
#174=VERTEX_POINT('',#488);
#175=VERTEX_POINT('',#490);
#176=VERTEX_POINT('',#492);
#177=VERTEX_POINT('',#500);
#178=VERTEX_POINT('',#502);
#179=VERTEX_POINT('',#508);
#180=VERTEX_POINT('',#509);
#181=VERTEX_POINT('',#516);
#182=VERTEX_POINT('',#518);
#183=EDGE_CURVE('',#168,#169,#249,.T.);
#184=EDGE_CURVE('',#169,#170,#102,.T.);
#185=EDGE_CURVE('',#171,#170,#250,.T.);
#186=EDGE_CURVE('',#171,#168,#103,.T.);
#187=EDGE_CURVE('',#168,#171,#104,.T.);
#188=EDGE_CURVE('',#170,#169,#105,.T.);
#189=EDGE_CURVE('',#172,#169,#251,.T.);
#190=EDGE_CURVE('',#172,#170,#252,.T.);
#191=EDGE_CURVE('',#173,#174,#253,.T.);
#192=EDGE_CURVE('',#173,#175,#106,.T.);
#193=EDGE_CURVE('',#175,#176,#254,.T.);
#194=EDGE_CURVE('',#176,#174,#107,.T.);
#195=EDGE_CURVE('',#174,#176,#108,.T.);
#196=EDGE_CURVE('',#175,#173,#109,.T.);
#197=EDGE_CURVE('',#175,#177,#255,.T.);
#198=EDGE_CURVE('',#178,#177,#110,.T.);
#199=EDGE_CURVE('',#173,#178,#256,.T.);
#200=EDGE_CURVE('',#177,#178,#111,.T.);
#201=EDGE_CURVE('',#179,#180,#112,.T.);
#202=EDGE_CURVE('',#180,#177,#257,.T.);
#203=EDGE_CURVE('',#179,#178,#258,.T.);
#204=EDGE_CURVE('',#180,#179,#113,.T.);
#205=EDGE_CURVE('',#180,#181,#259,.T.);
#206=EDGE_CURVE('',#181,#182,#114,.T.);
#207=EDGE_CURVE('',#179,#182,#260,.T.);
#208=EDGE_CURVE('',#182,#181,#115,.T.);
#209=COLOUR_RGB('Strong Stone',0.576470588235294,0.54508278019379,0.392156862745098);
#210=COLOUR_RGB('Medium Umber',0.372533760585946,0.313725490196078,0.270572976272221);
#211=COLOUR_RGB('Light Gray',0.8,0.8,0.8);
#212=COLOUR_RGB('non-cutting part and shank',0.501960784313725,0.501960784313725,
0.501960784313725);
#213=CURVE_STYLE('',#227,POSITIVE_LENGTH_MEASURE(0.18),#315);
#214=CURVE_STYLE('',#228,POSITIVE_LENGTH_MEASURE(0.18),#315);
#215=CURVE_STYLE('',#229,POSITIVE_LENGTH_MEASURE(0.18),#315);
#216=CURVE_STYLE('',#230,POSITIVE_LENGTH_MEASURE(0.18),#315);
#217=CURVE_STYLE('',#231,POSITIVE_LENGTH_MEASURE(0.13),#209);
#218=CURVE_STYLE('',#232,POSITIVE_LENGTH_MEASURE(0.13),#209);
#219=CURVE_STYLE('',#233,POSITIVE_LENGTH_MEASURE(0.13),#210);
#220=CURVE_STYLE('',#234,POSITIVE_LENGTH_MEASURE(0.13),#210);
#221=CURVE_STYLE('',#235,POSITIVE_LENGTH_MEASURE(0.13),#209);
#222=CURVE_STYLE('',#236,POSITIVE_LENGTH_MEASURE(0.13),#209);
#223=CURVE_STYLE('',#237,POSITIVE_LENGTH_MEASURE(0.13),#210);
#224=CURVE_STYLE('',#238,POSITIVE_LENGTH_MEASURE(0.13),#209);
#225=CURVE_STYLE('',#239,POSITIVE_LENGTH_MEASURE(0.13),#209);
#226=CURVE_STYLE('',#240,POSITIVE_LENGTH_MEASURE(0.13),#209);
#227=DRAUGHTING_PRE_DEFINED_CURVE_FONT('continuous');
#228=DRAUGHTING_PRE_DEFINED_CURVE_FONT('continuous');
#229=DRAUGHTING_PRE_DEFINED_CURVE_FONT('continuous');
#230=DRAUGHTING_PRE_DEFINED_CURVE_FONT('continuous');
#231=DRAUGHTING_PRE_DEFINED_CURVE_FONT('continuous');
#232=DRAUGHTING_PRE_DEFINED_CURVE_FONT('continuous');
#233=DRAUGHTING_PRE_DEFINED_CURVE_FONT('continuous');
#234=DRAUGHTING_PRE_DEFINED_CURVE_FONT('continuous');
#235=DRAUGHTING_PRE_DEFINED_CURVE_FONT('continuous');
#236=DRAUGHTING_PRE_DEFINED_CURVE_FONT('continuous');
#237=DRAUGHTING_PRE_DEFINED_CURVE_FONT('continuous');
#238=DRAUGHTING_PRE_DEFINED_CURVE_FONT('continuous');
#239=DRAUGHTING_PRE_DEFINED_CURVE_FONT('continuous');
#240=DRAUGHTING_PRE_DEFINED_CURVE_FONT('continuous');
#241=TRIMMED_CURVE('',#245,(PARAMETER_VALUE(0.)),(PARAMETER_VALUE(1.)),
 .T.,.PARAMETER.);
#242=TRIMMED_CURVE('',#246,(PARAMETER_VALUE(0.)),(PARAMETER_VALUE(1.)),
 .T.,.PARAMETER.);
#243=TRIMMED_CURVE('',#247,(PARAMETER_VALUE(0.)),(PARAMETER_VALUE(1.)),
 .T.,.PARAMETER.);
#244=TRIMMED_CURVE('',#248,(PARAMETER_VALUE(0.)),(PARAMETER_VALUE(1.)),
 .T.,.PARAMETER.);
#245=LINE('',#454,#261);
#246=LINE('',#455,#262);
#247=LINE('',#456,#263);
#248=LINE('',#457,#264);
#249=LINE('',#468,#265);
#250=LINE('',#473,#266);
#251=LINE('',#481,#267);
#252=LINE('',#483,#268);
#253=LINE('',#486,#269);
#254=LINE('',#491,#270);
#255=LINE('',#499,#271);
#256=LINE('',#503,#272);
#257=LINE('',#510,#273);
#258=LINE('',#511,#274);
#259=LINE('',#515,#275);
#260=LINE('',#519,#276);
#261=VECTOR('',#358,1.649475547338);
#262=VECTOR('',#359,9.3);
#263=VECTOR('',#360,1.55);
#264=VECTOR('',#361,9.864153863113);
#265=VECTOR('',#382,1.);
#266=VECTOR('',#385,1.);
#267=VECTOR('',#398,1.);
#268=VECTOR('',#399,1.);
#269=VECTOR('',#404,1.);
#270=VECTOR('',#407,1.);
#271=VECTOR('',#420,1.);
#272=VECTOR('',#423,1.);
#273=VECTOR('',#432,1.);
#274=VECTOR('',#433,1.);
#275=VECTOR('',#440,1.);
#276=VECTOR('',#443,1.);
#277=PRESENTATION_LAYER_ASSIGNMENT('1','Layer 1',(#453,#241,#242,#243,#244,
#317,#318,#321,#322,#323,#324,#325,#326,#38,#39));
#278=PRESENTATION_LAYER_ASSIGNMENT('2','Layer 2',(#319,#320));
#279=STYLED_ITEM('',(#296),#453);
#280=STYLED_ITEM('',(#297),#241);
#281=STYLED_ITEM('',(#298),#242);
#282=STYLED_ITEM('',(#299),#243);
#283=STYLED_ITEM('',(#300),#244);
#284=STYLED_ITEM('',(#301),#317);
#285=STYLED_ITEM('',(#302),#318);
#286=STYLED_ITEM('',(#303),#319);
#287=STYLED_ITEM('',(#304),#320);
#288=STYLED_ITEM('',(#305),#321);
#289=STYLED_ITEM('',(#306),#322);
#290=STYLED_ITEM('',(#307),#323);
#291=STYLED_ITEM('',(#308),#324);
#292=STYLED_ITEM('',(#309),#325);
#293=STYLED_ITEM('',(#310),#326);
#294=STYLED_ITEM('',(#311),#38);
#295=STYLED_ITEM('',(#312),#39);
#296=PRESENTATION_STYLE_ASSIGNMENT((#313));
#297=PRESENTATION_STYLE_ASSIGNMENT((#213));
#298=PRESENTATION_STYLE_ASSIGNMENT((#214));
#299=PRESENTATION_STYLE_ASSIGNMENT((#215));
#300=PRESENTATION_STYLE_ASSIGNMENT((#216));
#301=PRESENTATION_STYLE_ASSIGNMENT((#217));
#302=PRESENTATION_STYLE_ASSIGNMENT((#218));
#303=PRESENTATION_STYLE_ASSIGNMENT((#219));
#304=PRESENTATION_STYLE_ASSIGNMENT((#220));
#305=PRESENTATION_STYLE_ASSIGNMENT((#221));
#306=PRESENTATION_STYLE_ASSIGNMENT((#222));
#307=PRESENTATION_STYLE_ASSIGNMENT((#223));
#308=PRESENTATION_STYLE_ASSIGNMENT((#224));
#309=PRESENTATION_STYLE_ASSIGNMENT((#225));
#310=PRESENTATION_STYLE_ASSIGNMENT((#226));
#311=PRESENTATION_STYLE_ASSIGNMENT((#28));
#312=PRESENTATION_STYLE_ASSIGNMENT((#29));
#313=POINT_STYLE('',#314,POSITIVE_LENGTH_MEASURE(3.),#315);
#314=PRE_DEFINED_POINT_MARKER_SYMBOL('plus');
#315=DRAUGHTING_PRE_DEFINED_COLOUR('blue');
#316=AXIS2_PLACEMENT_3D('',#452,#356,#357);
#317=AXIS2_PLACEMENT_3D('',#458,#362,#363);
#318=AXIS2_PLACEMENT_3D('',#459,#364,#365);
#319=AXIS2_PLACEMENT_3D('CIP',#460,#366,#367);
#320=AXIS2_PLACEMENT_3D('PCS',#461,#368,#369);
#321=AXIS2_PLACEMENT_3D('MCS',#462,#370,#371);
#322=AXIS2_PLACEMENT_3D('',#463,#372,#373);
#323=AXIS2_PLACEMENT_3D('STEP_TEMP_1_1',#464,#374,#375);
#324=AXIS2_PLACEMENT_3D('',#465,#376,#377);
#325=AXIS2_PLACEMENT_3D('',#466,#378,#379);
#326=AXIS2_PLACEMENT_3D('',#467,#380,#381);
#327=AXIS2_PLACEMENT_3D('',#471,#383,#384);
#328=AXIS2_PLACEMENT_3D('',#475,#386,#387);
#329=AXIS2_PLACEMENT_3D('',#476,#388,#389);
#330=AXIS2_PLACEMENT_3D('',#477,#390,#391);
#331=AXIS2_PLACEMENT_3D('',#478,#392,#393);
#332=AXIS2_PLACEMENT_3D('',#479,#394,#395);
#333=AXIS2_PLACEMENT_3D('',#480,#396,#397);
#334=AXIS2_PLACEMENT_3D('',#484,#400,#401);
#335=AXIS2_PLACEMENT_3D('',#485,#402,#403);
#336=AXIS2_PLACEMENT_3D('',#489,#405,#406);
#337=AXIS2_PLACEMENT_3D('',#493,#408,#409);
#338=AXIS2_PLACEMENT_3D('',#494,#410,#411);
#339=AXIS2_PLACEMENT_3D('',#495,#412,#413);
#340=AXIS2_PLACEMENT_3D('',#496,#414,#415);
#341=AXIS2_PLACEMENT_3D('',#497,#416,#417);
#342=AXIS2_PLACEMENT_3D('',#498,#418,#419);
#343=AXIS2_PLACEMENT_3D('',#501,#421,#422);
#344=AXIS2_PLACEMENT_3D('',#504,#424,#425);
#345=AXIS2_PLACEMENT_3D('',#505,#426,#427);
#346=AXIS2_PLACEMENT_3D('',#506,#428,#429);
#347=AXIS2_PLACEMENT_3D('',#507,#430,#431);
#348=AXIS2_PLACEMENT_3D('',#512,#434,#435);
#349=AXIS2_PLACEMENT_3D('',#513,#436,#437);
#350=AXIS2_PLACEMENT_3D('',#514,#438,#439);
#351=AXIS2_PLACEMENT_3D('',#517,#441,#442);
#352=AXIS2_PLACEMENT_3D('',#520,#444,#445);
#353=AXIS2_PLACEMENT_3D('',#521,#446,#447);
#354=AXIS2_PLACEMENT_3D('',#522,#448,#449);
#355=AXIS2_PLACEMENT_3D('',#523,#450,#451);
#356=DIRECTION('',(0.,0.,1.));
#357=DIRECTION('',(1.,0.,0.));
#358=DIRECTION('',(-0.939692620785897,0.,0.342020143325699));
#359=DIRECTION('',(0.,0.,1.));
#360=DIRECTION('',(1.,0.,0.));
#361=DIRECTION('',(0.,0.,-1.));
#362=DIRECTION('',(0.,0.,1.));
#363=DIRECTION('',(1.,0.,0.));
#364=DIRECTION('',(0.,0.,1.));
#365=DIRECTION('',(1.,0.,0.));
#366=DIRECTION('',(0.,0.,1.));
#367=DIRECTION('',(1.,0.,0.));
#368=DIRECTION('',(0.,0.,1.));
#369=DIRECTION('',(1.,0.,0.));
#370=DIRECTION('',(0.,0.,1.));
#371=DIRECTION('',(1.,0.,0.));
#372=DIRECTION('',(0.,0.,1.));
#373=DIRECTION('',(1.,0.,0.));
#374=DIRECTION('',(0.,0.,1.));
#375=DIRECTION('',(1.,0.,0.));
#376=DIRECTION('',(0.,0.,1.));
#377=DIRECTION('',(1.,0.,0.));
#378=DIRECTION('',(0.,0.,1.));
#379=DIRECTION('',(1.,0.,0.));
#380=DIRECTION('',(0.,0.,1.));
#381=DIRECTION('',(1.,0.,0.));
#382=DIRECTION('',(0.,0.,-1.));
#383=DIRECTION('',(0.,0.,1.));
#384=DIRECTION('',(0.,-1.,0.));
#385=DIRECTION('',(0.,0.,-1.));
#386=DIRECTION('',(0.,0.,-1.));
#387=DIRECTION('',(0.,1.,0.));
#388=DIRECTION('',(0.,0.,-1.));
#389=DIRECTION('',(0.,1.,0.));
#390=DIRECTION('',(0.,0.,-1.));
#391=DIRECTION('',(0.,-1.,0.));
#392=DIRECTION('',(0.,0.,-1.));
#393=DIRECTION('',(1.,0.,0.));
#394=DIRECTION('',(0.,0.,1.));
#395=DIRECTION('',(0.,1.,0.));
#396=DIRECTION('',(0.,0.,-1.));
#397=DIRECTION('',(0.,1.,0.));
#398=DIRECTION('',(0.,-0.939692620785897,0.342020143325699));
#399=DIRECTION('',(0.,0.939692620785897,0.342020143325699));
#400=DIRECTION('',(0.,0.,1.));
#401=DIRECTION('',(0.,-1.,3.36314500308002E-17));
#402=DIRECTION('',(0.,0.,1.));
#403=DIRECTION('',(0.,-1.,3.36314500308002E-17));
#404=DIRECTION('',(0.,3.790699377576E-14,-1.));
#405=DIRECTION('',(0.,0.,-1.));
#406=DIRECTION('',(0.,1.,0.));
#407=DIRECTION('',(0.,-3.905893775622E-14,-1.));
#408=DIRECTION('',(0.,0.,1.));
#409=DIRECTION('',(0.,-1.,0.));
#410=DIRECTION('',(0.,0.,-1.));
#411=DIRECTION('',(0.,1.,0.));
#412=DIRECTION('',(0.,0.,1.));
#413=DIRECTION('',(0.,1.,0.));
#414=DIRECTION('',(0.,0.,1.));
#415=DIRECTION('',(-1.,0.,0.));
#416=DIRECTION('',(0.,0.,-1.));
#417=DIRECTION('',(0.,-1.,0.));
#418=DIRECTION('',(0.,0.,-1.));
#419=DIRECTION('',(0.,1.,0.));
#420=DIRECTION('',(0.,-0.258819045102612,0.965925826289044));
#421=DIRECTION('',(0.,0.,1.));
#422=DIRECTION('',(0.,1.,0.));
#423=DIRECTION('',(0.,0.258819045102612,0.965925826289044));
#424=DIRECTION('',(0.,0.,1.));
#425=DIRECTION('',(0.,-1.,1.02713141136331E-16));
#426=DIRECTION('',(0.,0.,1.));
#427=DIRECTION('',(0.,-1.,0.));
#428=DIRECTION('',(0.,0.,1.));
#429=DIRECTION('',(0.,-1.,1.02713141136331E-16));
#430=DIRECTION('',(0.,0.,-1.));
#431=DIRECTION('',(0.,1.,0.));
#432=DIRECTION('',(0.,2.015259494591E-14,-1.));
#433=DIRECTION('',(0.,-2.015259494591E-14,-1.));
#434=DIRECTION('',(0.,0.,-1.));
#435=DIRECTION('',(0.,1.,0.));
#436=DIRECTION('',(0.,0.,-1.));
#437=DIRECTION('',(0.,-1.,0.));
#438=DIRECTION('',(0.,0.,-1.));
#439=DIRECTION('',(0.,1.,0.));
#440=DIRECTION('',(0.,0.707106781186547,0.707106781186547));
#441=DIRECTION('',(0.,0.,-1.));
#442=DIRECTION('',(0.,-1.,0.));
#443=DIRECTION('',(0.,-0.707106781186547,0.707106781186547));
#444=DIRECTION('',(0.,0.,-1.));
#445=DIRECTION('',(0.,1.,2.76849789193845E-17));
#446=DIRECTION('',(0.,0.,-1.));
#447=DIRECTION('',(0.,1.,0.));
#448=DIRECTION('',(0.,0.,-1.));
#449=DIRECTION('',(0.,1.,2.76849789193845E-17));
#450=DIRECTION('',(0.,0.,-1.));
#451=DIRECTION('',(0.,1.,0.));
#452=CARTESIAN_POINT('',(0.,0.,0.));
#453=CARTESIAN_POINT('CRP',(-1.55,0.,0.5641538631126));
#454=CARTESIAN_POINT('',(0.,0.,0.));
#455=CARTESIAN_POINT('',(-1.55,0.,0.5641538631126));
#456=CARTESIAN_POINT('',(-1.55,0.,9.864153863113));
#457=CARTESIAN_POINT('',(0.,0.,9.864153863113));
#458=CARTESIAN_POINT('',(0.,0.,0.));
#459=CARTESIAN_POINT('',(0.,0.,0.));
#460=CARTESIAN_POINT('',(0.,0.,0.));
#461=CARTESIAN_POINT('',(0.,0.,70.56415386311));
#462=CARTESIAN_POINT('',(0.,0.,25.56415386));
#463=CARTESIAN_POINT('',(0.,0.,0.));
#464=CARTESIAN_POINT('',(0.,0.,0.));
#465=CARTESIAN_POINT('',(0.,0.,0.));
#466=CARTESIAN_POINT('',(0.,0.,0.));
#467=CARTESIAN_POINT('',(0.,0.,0.));
#468=CARTESIAN_POINT('',(0.,-1.55,9.864153863));
#469=CARTESIAN_POINT('',(0.,-1.55,9.864153863));
#470=CARTESIAN_POINT('',(0.,-1.55,0.5641538631126));
#471=CARTESIAN_POINT('',(0.,-1.290514317947E-14,0.5641538631126));
#472=CARTESIAN_POINT('',(0.,1.55,0.5641538631126));
#473=CARTESIAN_POINT('',(0.,1.55,9.864153863));
#474=CARTESIAN_POINT('',(0.,1.55,9.864153863));
#475=CARTESIAN_POINT('',(0.,0.,9.864153863));
#476=CARTESIAN_POINT('',(0.,0.,74.09236155627));
#477=CARTESIAN_POINT('',(0.,0.,9.864153863));
#478=CARTESIAN_POINT('',(150.,150.,9.864153863));
#479=CARTESIAN_POINT('',(0.,-1.290514317947E-14,0.5641538631126));
#480=CARTESIAN_POINT('',(0.,0.,74.09236155627));
#481=CARTESIAN_POINT('',(0.,-1.55,0.5641538631126));
#482=CARTESIAN_POINT('',(0.,-1.287858708565E-14,-3.297362383137E-14));
#483=CARTESIAN_POINT('',(0.,1.55,0.5641538631126));
#484=CARTESIAN_POINT('',(0.,-1.290514317947E-14,0.2877184701874));
#485=CARTESIAN_POINT('',(0.,-1.290514317947E-14,0.2877184701874));
#486=CARTESIAN_POINT('',(0.,1.55,18.15268019214));
#487=CARTESIAN_POINT('',(0.,1.549999999999,18.15268019214));
#488=CARTESIAN_POINT('',(0.,1.55,9.864153863));
#489=CARTESIAN_POINT('',(0.,0.,18.15268019214));
#490=CARTESIAN_POINT('',(0.,-1.55,18.15268019214));
#491=CARTESIAN_POINT('',(0.,-1.55,18.15268019214));
#492=CARTESIAN_POINT('',(0.,-1.55,9.864153863));
#493=CARTESIAN_POINT('',(0.,0.,9.864153863));
#494=CARTESIAN_POINT('',(0.,0.,74.09236155627));
#495=CARTESIAN_POINT('',(0.,0.,9.864153863));
#496=CARTESIAN_POINT('',(-150.,150.,9.864153863));
#497=CARTESIAN_POINT('',(0.,0.,18.15268019214));
#498=CARTESIAN_POINT('',(0.,0.,74.09236155627));
#499=CARTESIAN_POINT('',(0.,-2.999999999999,23.56415386311));
#500=CARTESIAN_POINT('',(0.,-2.999999999998,23.56415386311));
#501=CARTESIAN_POINT('',(0.,0.,23.56415386311));
#502=CARTESIAN_POINT('',(0.,2.999999999999,23.56415386311));
#503=CARTESIAN_POINT('',(0.,2.999999999999,23.56415386311));
#504=CARTESIAN_POINT('',(0.,0.,20.85841702763));
#505=CARTESIAN_POINT('',(0.,0.,23.56415386311));
#506=CARTESIAN_POINT('',(0.,0.,20.85841702763));
#507=CARTESIAN_POINT('',(0.,0.,69.66415386311));
#508=CARTESIAN_POINT('',(0.,3.,69.66415386311));
#509=CARTESIAN_POINT('',(0.,-3.,69.66415386311));
#510=CARTESIAN_POINT('',(0.,-3.,69.66415386311));
#511=CARTESIAN_POINT('',(0.,3.,69.66415386311));
#512=CARTESIAN_POINT('',(0.,0.,74.09236155627));
#513=CARTESIAN_POINT('',(0.,0.,69.66415386311));
#514=CARTESIAN_POINT('',(0.,0.,74.09236155627));
#515=CARTESIAN_POINT('',(0.,-2.1,70.56415386311));
#516=CARTESIAN_POINT('',(0.,-2.1,70.56415386311));
#517=CARTESIAN_POINT('',(0.,0.,70.56415386311));
#518=CARTESIAN_POINT('',(0.,2.1,70.56415386311));
#519=CARTESIAN_POINT('',(0.,2.1,70.56415386311));
#520=CARTESIAN_POINT('',(0.,0.,70.11415386311));
#521=CARTESIAN_POINT('',(0.,0.,70.56415386311));
#522=CARTESIAN_POINT('',(0.,0.,70.11415386311));
#523=CARTESIAN_POINT('',(0.,0.,70.56415386311));
#524=MECHANICAL_DESIGN_GEOMETRIC_PRESENTATION_REPRESENTATION('',(#279,#280,
#281,#282,#283,#284,#285,#286,#287,#288,#289,#290,#291,#292,#293,#294,#295),
#525);
#525=(
GEOMETRIC_REPRESENTATION_CONTEXT(3)
GLOBAL_UNCERTAINTY_ASSIGNED_CONTEXT((#526))
GLOBAL_UNIT_ASSIGNED_CONTEXT((#532,#528,#527))
REPRESENTATION_CONTEXT('MMS0310X3DB','TOP_LEVEL_ASSEMBLY_PART')
);
#526=UNCERTAINTY_MEASURE_WITH_UNIT(LENGTH_MEASURE(2.E-5),#532,
'DISTANCE_ACCURACY_VALUE','Maximum Tolerance applied to model');
#527=(
NAMED_UNIT(*)
SI_UNIT($,.STERADIAN.)
SOLID_ANGLE_UNIT()
);
#528=(
CONVERSION_BASED_UNIT('DEGREE',#530)
NAMED_UNIT(#529)
PLANE_ANGLE_UNIT()
);
#529=DIMENSIONAL_EXPONENTS(0.,0.,0.,0.,0.,0.,0.);
#530=PLANE_ANGLE_MEASURE_WITH_UNIT(PLANE_ANGLE_MEASURE(0.0174532925),#531);
#531=(
NAMED_UNIT(*)
PLANE_ANGLE_UNIT()
SI_UNIT($,.RADIAN.)
);
#532=(
LENGTH_UNIT()
NAMED_UNIT(*)
SI_UNIT(.MILLI.,.METRE.)
);
ENDSEC;
END-ISO-10303-21;
