ISO-10303-21;
HEADER;
/* Generated by software containing ST-Developer
 * from STEP Tools, Inc. (www.steptools.com) 
 */
/* OPTION: using custom schema-name function */

FILE_DESCRIPTION(
/* description */ (''),
/* implementation_level */ '2;1');

FILE_NAME(
/* name */ 'MSMHZDD1300.stp',
/* time_stamp */ '2023-03-17T09:18:56+09:00',
/* author */ (''),
/* organization */ (''),
/* preprocessor_version */ 'ST-DEVELOPER v16',
/* originating_system */ 'SIEMENS PLM Software NX 10.0',
/* authorisation */ '');

FILE_SCHEMA (('AUTOMOTIVE_DESIGN { 1 0 10303 214 3 1 1 1 }'));
ENDSEC;

DATA;
#10=CONSTRUCTIVE_GEOMETRY_REPRESENTATION_RELATIONSHIP(
'supplemental geometry','',#26,#11);
#11=CONSTRUCTIVE_GEOMETRY_REPRESENTATION('supplemental geometry',(#274,
#275,#276,#277,#278,#279,#280,#281,#282,#283),#451);
#12=GEOMETRICALLY_BOUNDED_WIREFRAME_SHAPE_REPRESENTATION(
'MSMHZDD1300-None',(#27),#451);
#13=SHAPE_REPRESENTATION_RELATIONSHIP('None',
'relationship between MSMHZDD1300-None and MSMHZDD1300-None',#26,#15);
#14=SHAPE_REPRESENTATION_RELATIONSHIP('None',
'relationship between MSMHZDD1300-None and MSMHZDD1300-None',#26,#12);
#15=ADVANCED_BREP_SHAPE_REPRESENTATION('MSMHZDD1300-None',(#42,#43),#451);
#16=SHAPE_DEFINITION_REPRESENTATION(#17,#26);
#17=PRODUCT_DEFINITION_SHAPE('','SHAPE FOR MSMHZDD1300_ASM.',#18);
#18=PRODUCT_DEFINITION('part definition','',#20,#19);
#19=PRODUCT_DEFINITION_CONTEXT('part definition',#25,'design');
#20=PRODUCT_DEFINITION_FORMATION_WITH_SPECIFIED_SOURCE(' ',' ',#22,
 .NOT_KNOWN.);
#21=PRODUCT_RELATED_PRODUCT_CATEGORY('part','',(#22));
#22=PRODUCT('MSMHZDD1300_ASM','MSMHZDD1300_ASM','NOT SPECIFIED',(#23));
#23=PRODUCT_CONTEXT('',#25,'mechanical');
#24=APPLICATION_PROTOCOL_DEFINITION('international standard',
'automotive_design',2010,#25);
#25=APPLICATION_CONTEXT(
'core data for automotive mechanical design processes');
#26=SHAPE_REPRESENTATION('MSMHZDD1300-None',(#273),#451);
#27=GEOMETRIC_CURVE_SET('None',(#391,#202,#203,#204,#205));
#28=CONICAL_SURFACE('',#294,6.25,45.);
#29=CONICAL_SURFACE('',#298,6.25,45.);
#30=CONICAL_SURFACE('',#304,5.75,45.);
#31=CONICAL_SURFACE('',#306,5.75,45.);
#32=SURFACE_STYLE_USAGE(.BOTH.,#34);
#33=SURFACE_STYLE_USAGE(.BOTH.,#35);
#34=SURFACE_SIDE_STYLE('',(#36));
#35=SURFACE_SIDE_STYLE('',(#37));
#36=SURFACE_STYLE_FILL_AREA(#38);
#37=SURFACE_STYLE_FILL_AREA(#39);
#38=FILL_AREA_STYLE('',(#40));
#39=FILL_AREA_STYLE('',(#41));
#40=FILL_AREA_STYLE_COLOUR('',#271);
#41=FILL_AREA_STYLE_COLOUR('',#272);
#42=MANIFOLD_SOLID_BREP('CUT',#44);
#43=MANIFOLD_SOLID_BREP('NOCUT',#45);
#44=CLOSED_SHELL('',(#50,#51,#52,#53));
#45=CLOSED_SHELL('',(#54,#55,#56,#57,#58,#59,#60,#61));
#46=PLANE('',#288);
#47=PLANE('',#291);
#48=PLANE('',#296);
#49=PLANE('',#307);
#50=ADVANCED_FACE('',(#66),#62,.T.);
#51=ADVANCED_FACE('',(#67),#46,.F.);
#52=ADVANCED_FACE('',(#68),#63,.T.);
#53=ADVANCED_FACE('',(#69),#47,.T.);
#54=ADVANCED_FACE('',(#70),#28,.T.);
#55=ADVANCED_FACE('',(#71),#48,.F.);
#56=ADVANCED_FACE('',(#72),#29,.T.);
#57=ADVANCED_FACE('',(#73),#64,.T.);
#58=ADVANCED_FACE('',(#74),#65,.T.);
#59=ADVANCED_FACE('',(#75),#30,.T.);
#60=ADVANCED_FACE('',(#76),#31,.T.);
#61=ADVANCED_FACE('',(#77),#49,.F.);
#62=CYLINDRICAL_SURFACE('',#286,6.5);
#63=CYLINDRICAL_SURFACE('',#290,6.5);
#64=CYLINDRICAL_SURFACE('',#300,6.);
#65=CYLINDRICAL_SURFACE('',#302,6.);
#66=FACE_OUTER_BOUND('',#78,.T.);
#67=FACE_OUTER_BOUND('',#79,.T.);
#68=FACE_OUTER_BOUND('',#80,.T.);
#69=FACE_OUTER_BOUND('',#81,.T.);
#70=FACE_OUTER_BOUND('',#82,.T.);
#71=FACE_OUTER_BOUND('',#83,.T.);
#72=FACE_OUTER_BOUND('',#84,.T.);
#73=FACE_OUTER_BOUND('',#85,.T.);
#74=FACE_OUTER_BOUND('',#86,.T.);
#75=FACE_OUTER_BOUND('',#87,.T.);
#76=FACE_OUTER_BOUND('',#88,.T.);
#77=FACE_OUTER_BOUND('',#89,.T.);
#78=EDGE_LOOP('',(#102,#103,#104,#105));
#79=EDGE_LOOP('',(#106,#107));
#80=EDGE_LOOP('',(#108,#109,#110,#111));
#81=EDGE_LOOP('',(#112,#113));
#82=EDGE_LOOP('',(#114,#115,#116,#117));
#83=EDGE_LOOP('',(#118,#119));
#84=EDGE_LOOP('',(#120,#121,#122,#123));
#85=EDGE_LOOP('',(#124,#125,#126,#127));
#86=EDGE_LOOP('',(#128,#129,#130,#131));
#87=EDGE_LOOP('',(#132,#133,#134,#135));
#88=EDGE_LOOP('',(#136,#137,#138,#139));
#89=EDGE_LOOP('',(#140,#141));
#90=CIRCLE('',#284,6.5);
#91=CIRCLE('',#285,6.5);
#92=CIRCLE('',#287,6.5);
#93=CIRCLE('',#289,6.5);
#94=CIRCLE('',#292,6.);
#95=CIRCLE('',#293,6.5);
#96=CIRCLE('',#295,6.5);
#97=CIRCLE('',#297,6.);
#98=CIRCLE('',#299,6.);
#99=CIRCLE('',#301,6.);
#100=CIRCLE('',#303,5.5);
#101=CIRCLE('',#305,5.5);
#102=ORIENTED_EDGE('',*,*,#154,.T.);
#103=ORIENTED_EDGE('',*,*,#155,.T.);
#104=ORIENTED_EDGE('',*,*,#156,.F.);
#105=ORIENTED_EDGE('',*,*,#157,.T.);
#106=ORIENTED_EDGE('',*,*,#158,.F.);
#107=ORIENTED_EDGE('',*,*,#157,.F.);
#108=ORIENTED_EDGE('',*,*,#156,.T.);
#109=ORIENTED_EDGE('',*,*,#159,.T.);
#110=ORIENTED_EDGE('',*,*,#154,.F.);
#111=ORIENTED_EDGE('',*,*,#158,.T.);
#112=ORIENTED_EDGE('',*,*,#155,.F.);
#113=ORIENTED_EDGE('',*,*,#159,.F.);
#114=ORIENTED_EDGE('',*,*,#160,.F.);
#115=ORIENTED_EDGE('',*,*,#161,.F.);
#116=ORIENTED_EDGE('',*,*,#162,.T.);
#117=ORIENTED_EDGE('',*,*,#163,.T.);
#118=ORIENTED_EDGE('',*,*,#164,.F.);
#119=ORIENTED_EDGE('',*,*,#163,.F.);
#120=ORIENTED_EDGE('',*,*,#162,.F.);
#121=ORIENTED_EDGE('',*,*,#165,.F.);
#122=ORIENTED_EDGE('',*,*,#160,.T.);
#123=ORIENTED_EDGE('',*,*,#164,.T.);
#124=ORIENTED_EDGE('',*,*,#165,.T.);
#125=ORIENTED_EDGE('',*,*,#166,.T.);
#126=ORIENTED_EDGE('',*,*,#167,.T.);
#127=ORIENTED_EDGE('',*,*,#168,.F.);
#128=ORIENTED_EDGE('',*,*,#169,.T.);
#129=ORIENTED_EDGE('',*,*,#166,.F.);
#130=ORIENTED_EDGE('',*,*,#161,.T.);
#131=ORIENTED_EDGE('',*,*,#168,.T.);
#132=ORIENTED_EDGE('',*,*,#170,.T.);
#133=ORIENTED_EDGE('',*,*,#171,.T.);
#134=ORIENTED_EDGE('',*,*,#169,.F.);
#135=ORIENTED_EDGE('',*,*,#172,.F.);
#136=ORIENTED_EDGE('',*,*,#167,.F.);
#137=ORIENTED_EDGE('',*,*,#171,.F.);
#138=ORIENTED_EDGE('',*,*,#173,.T.);
#139=ORIENTED_EDGE('',*,*,#172,.T.);
#140=ORIENTED_EDGE('',*,*,#170,.F.);
#141=ORIENTED_EDGE('',*,*,#173,.F.);
#142=VERTEX_POINT('',#407);
#143=VERTEX_POINT('',#408);
#144=VERTEX_POINT('',#410);
#145=VERTEX_POINT('',#412);
#146=VERTEX_POINT('',#421);
#147=VERTEX_POINT('',#422);
#148=VERTEX_POINT('',#424);
#149=VERTEX_POINT('',#426);
#150=VERTEX_POINT('',#434);
#151=VERTEX_POINT('',#436);
#152=VERTEX_POINT('',#442);
#153=VERTEX_POINT('',#443);
#154=EDGE_CURVE('',#142,#143,#210,.T.);
#155=EDGE_CURVE('',#143,#144,#90,.T.);
#156=EDGE_CURVE('',#145,#144,#211,.T.);
#157=EDGE_CURVE('',#145,#142,#91,.T.);
#158=EDGE_CURVE('',#142,#145,#92,.T.);
#159=EDGE_CURVE('',#144,#143,#93,.T.);
#160=EDGE_CURVE('',#146,#147,#212,.T.);
#161=EDGE_CURVE('',#148,#146,#94,.T.);
#162=EDGE_CURVE('',#148,#149,#213,.T.);
#163=EDGE_CURVE('',#149,#147,#95,.T.);
#164=EDGE_CURVE('',#147,#149,#96,.T.);
#165=EDGE_CURVE('',#146,#148,#97,.T.);
#166=EDGE_CURVE('',#148,#150,#214,.T.);
#167=EDGE_CURVE('',#150,#151,#98,.T.);
#168=EDGE_CURVE('',#146,#151,#215,.T.);
#169=EDGE_CURVE('',#151,#150,#99,.T.);
#170=EDGE_CURVE('',#152,#153,#100,.T.);
#171=EDGE_CURVE('',#153,#150,#216,.T.);
#172=EDGE_CURVE('',#152,#151,#217,.T.);
#173=EDGE_CURVE('',#153,#152,#101,.T.);
#174=CURVE_STYLE('',#188,POSITIVE_LENGTH_MEASURE(0.18),#268);
#175=CURVE_STYLE('',#189,POSITIVE_LENGTH_MEASURE(0.18),#268);
#176=CURVE_STYLE('',#190,POSITIVE_LENGTH_MEASURE(0.18),#268);
#177=CURVE_STYLE('',#191,POSITIVE_LENGTH_MEASURE(0.18),#268);
#178=CURVE_STYLE('',#192,POSITIVE_LENGTH_MEASURE(0.13),#269);
#179=CURVE_STYLE('',#193,POSITIVE_LENGTH_MEASURE(0.13),#269);
#180=CURVE_STYLE('',#194,POSITIVE_LENGTH_MEASURE(0.13),#270);
#181=CURVE_STYLE('',#195,POSITIVE_LENGTH_MEASURE(0.13),#270);
#182=CURVE_STYLE('',#196,POSITIVE_LENGTH_MEASURE(0.13),#269);
#183=CURVE_STYLE('',#197,POSITIVE_LENGTH_MEASURE(0.13),#269);
#184=CURVE_STYLE('',#198,POSITIVE_LENGTH_MEASURE(0.13),#270);
#185=CURVE_STYLE('',#199,POSITIVE_LENGTH_MEASURE(0.13),#269);
#186=CURVE_STYLE('',#200,POSITIVE_LENGTH_MEASURE(0.13),#269);
#187=CURVE_STYLE('',#201,POSITIVE_LENGTH_MEASURE(0.13),#269);
#188=DRAUGHTING_PRE_DEFINED_CURVE_FONT('continuous');
#189=DRAUGHTING_PRE_DEFINED_CURVE_FONT('continuous');
#190=DRAUGHTING_PRE_DEFINED_CURVE_FONT('continuous');
#191=DRAUGHTING_PRE_DEFINED_CURVE_FONT('continuous');
#192=DRAUGHTING_PRE_DEFINED_CURVE_FONT('continuous');
#193=DRAUGHTING_PRE_DEFINED_CURVE_FONT('continuous');
#194=DRAUGHTING_PRE_DEFINED_CURVE_FONT('continuous');
#195=DRAUGHTING_PRE_DEFINED_CURVE_FONT('continuous');
#196=DRAUGHTING_PRE_DEFINED_CURVE_FONT('continuous');
#197=DRAUGHTING_PRE_DEFINED_CURVE_FONT('continuous');
#198=DRAUGHTING_PRE_DEFINED_CURVE_FONT('continuous');
#199=DRAUGHTING_PRE_DEFINED_CURVE_FONT('continuous');
#200=DRAUGHTING_PRE_DEFINED_CURVE_FONT('continuous');
#201=DRAUGHTING_PRE_DEFINED_CURVE_FONT('continuous');
#202=TRIMMED_CURVE('',#206,(PARAMETER_VALUE(0.)),(PARAMETER_VALUE(1.)),
 .T.,.PARAMETER.);
#203=TRIMMED_CURVE('',#207,(PARAMETER_VALUE(0.)),(PARAMETER_VALUE(1.)),
 .T.,.PARAMETER.);
#204=TRIMMED_CURVE('',#208,(PARAMETER_VALUE(0.)),(PARAMETER_VALUE(1.)),
 .T.,.PARAMETER.);
#205=TRIMMED_CURVE('',#209,(PARAMETER_VALUE(0.)),(PARAMETER_VALUE(1.)),
 .T.,.PARAMETER.);
#206=LINE('',#392,#218);
#207=LINE('',#393,#219);
#208=LINE('',#394,#220);
#209=LINE('',#395,#221);
#210=LINE('',#406,#222);
#211=LINE('',#411,#223);
#212=LINE('',#420,#224);
#213=LINE('',#425,#225);
#214=LINE('',#433,#226);
#215=LINE('',#437,#227);
#216=LINE('',#444,#228);
#217=LINE('',#445,#229);
#218=VECTOR('',#310,6.5);
#219=VECTOR('',#311,26.);
#220=VECTOR('',#312,6.5);
#221=VECTOR('',#313,26.);
#222=VECTOR('',#334,1.);
#223=VECTOR('',#337,1.);
#224=VECTOR('',#352,1.);
#225=VECTOR('',#355,1.);
#226=VECTOR('',#368,1.);
#227=VECTOR('',#371,1.);
#228=VECTOR('',#380,1.);
#229=VECTOR('',#381,1.);
#230=PRESENTATION_LAYER_ASSIGNMENT('1','Layer 1',(#391,#202,#203,#204,#205,
#274,#275,#278,#279,#280,#281,#282,#283,#42,#43));
#231=PRESENTATION_LAYER_ASSIGNMENT('2','Layer 2',(#276,#277));
#232=STYLED_ITEM('',(#249),#391);
#233=STYLED_ITEM('',(#250),#202);
#234=STYLED_ITEM('',(#251),#203);
#235=STYLED_ITEM('',(#252),#204);
#236=STYLED_ITEM('',(#253),#205);
#237=STYLED_ITEM('',(#254),#274);
#238=STYLED_ITEM('',(#255),#275);
#239=STYLED_ITEM('',(#256),#276);
#240=STYLED_ITEM('',(#257),#277);
#241=STYLED_ITEM('',(#258),#278);
#242=STYLED_ITEM('',(#259),#279);
#243=STYLED_ITEM('',(#260),#280);
#244=STYLED_ITEM('',(#261),#281);
#245=STYLED_ITEM('',(#262),#282);
#246=STYLED_ITEM('',(#263),#283);
#247=STYLED_ITEM('',(#264),#42);
#248=STYLED_ITEM('',(#265),#43);
#249=PRESENTATION_STYLE_ASSIGNMENT((#266));
#250=PRESENTATION_STYLE_ASSIGNMENT((#174));
#251=PRESENTATION_STYLE_ASSIGNMENT((#175));
#252=PRESENTATION_STYLE_ASSIGNMENT((#176));
#253=PRESENTATION_STYLE_ASSIGNMENT((#177));
#254=PRESENTATION_STYLE_ASSIGNMENT((#178));
#255=PRESENTATION_STYLE_ASSIGNMENT((#179));
#256=PRESENTATION_STYLE_ASSIGNMENT((#180));
#257=PRESENTATION_STYLE_ASSIGNMENT((#181));
#258=PRESENTATION_STYLE_ASSIGNMENT((#182));
#259=PRESENTATION_STYLE_ASSIGNMENT((#183));
#260=PRESENTATION_STYLE_ASSIGNMENT((#184));
#261=PRESENTATION_STYLE_ASSIGNMENT((#185));
#262=PRESENTATION_STYLE_ASSIGNMENT((#186));
#263=PRESENTATION_STYLE_ASSIGNMENT((#187));
#264=PRESENTATION_STYLE_ASSIGNMENT((#32));
#265=PRESENTATION_STYLE_ASSIGNMENT((#33));
#266=POINT_STYLE('',#267,POSITIVE_LENGTH_MEASURE(3.),#268);
#267=PRE_DEFINED_POINT_MARKER_SYMBOL('plus');
#268=COLOUR_RGB('Medium Royal',0.2,0.4,0.8);
#269=COLOUR_RGB('Strong Stone',0.576470588235294,0.54508278019379,0.392156862745098);
#270=COLOUR_RGB('Medium Umber',0.372533760585946,0.313725490196078,0.270572976272221);
#271=COLOUR_RGB('cutting part',0.8,0.8,0.8);
#272=COLOUR_RGB('non-cutting part and shank',0.501960784313725,0.501960784313725,
0.501960784313725);
#273=AXIS2_PLACEMENT_3D('',#390,#308,#309);
#274=AXIS2_PLACEMENT_3D('',#396,#314,#315);
#275=AXIS2_PLACEMENT_3D('',#397,#316,#317);
#276=AXIS2_PLACEMENT_3D('CIP',#398,#318,#319);
#277=AXIS2_PLACEMENT_3D('PCS',#399,#320,#321);
#278=AXIS2_PLACEMENT_3D('MCS',#400,#322,#323);
#279=AXIS2_PLACEMENT_3D('',#401,#324,#325);
#280=AXIS2_PLACEMENT_3D('STEP_TEMP_EM9_1',#402,#326,#327);
#281=AXIS2_PLACEMENT_3D('',#403,#328,#329);
#282=AXIS2_PLACEMENT_3D('',#404,#330,#331);
#283=AXIS2_PLACEMENT_3D('',#405,#332,#333);
#284=AXIS2_PLACEMENT_3D('',#409,#335,#336);
#285=AXIS2_PLACEMENT_3D('',#413,#338,#339);
#286=AXIS2_PLACEMENT_3D('',#414,#340,#341);
#287=AXIS2_PLACEMENT_3D('',#415,#342,#343);
#288=AXIS2_PLACEMENT_3D('',#416,#344,#345);
#289=AXIS2_PLACEMENT_3D('',#417,#346,#347);
#290=AXIS2_PLACEMENT_3D('',#418,#348,#349);
#291=AXIS2_PLACEMENT_3D('',#419,#350,#351);
#292=AXIS2_PLACEMENT_3D('',#423,#353,#354);
#293=AXIS2_PLACEMENT_3D('',#427,#356,#357);
#294=AXIS2_PLACEMENT_3D('',#428,#358,#359);
#295=AXIS2_PLACEMENT_3D('',#429,#360,#361);
#296=AXIS2_PLACEMENT_3D('',#430,#362,#363);
#297=AXIS2_PLACEMENT_3D('',#431,#364,#365);
#298=AXIS2_PLACEMENT_3D('',#432,#366,#367);
#299=AXIS2_PLACEMENT_3D('',#435,#369,#370);
#300=AXIS2_PLACEMENT_3D('',#438,#372,#373);
#301=AXIS2_PLACEMENT_3D('',#439,#374,#375);
#302=AXIS2_PLACEMENT_3D('',#440,#376,#377);
#303=AXIS2_PLACEMENT_3D('',#441,#378,#379);
#304=AXIS2_PLACEMENT_3D('',#446,#382,#383);
#305=AXIS2_PLACEMENT_3D('',#447,#384,#385);
#306=AXIS2_PLACEMENT_3D('',#448,#386,#387);
#307=AXIS2_PLACEMENT_3D('',#449,#388,#389);
#308=DIRECTION('',(0.,0.,1.));
#309=DIRECTION('',(1.,0.,0.));
#310=DIRECTION('',(-1.,0.,0.));
#311=DIRECTION('',(0.,0.,1.));
#312=DIRECTION('',(1.,0.,0.));
#313=DIRECTION('',(0.,0.,-1.));
#314=DIRECTION('',(0.,0.,1.));
#315=DIRECTION('',(1.,0.,0.));
#316=DIRECTION('',(0.,0.,1.));
#317=DIRECTION('',(1.,0.,0.));
#318=DIRECTION('',(0.,0.,1.));
#319=DIRECTION('',(1.,0.,0.));
#320=DIRECTION('',(0.,0.,1.));
#321=DIRECTION('',(1.,0.,0.));
#322=DIRECTION('',(0.,0.,1.));
#323=DIRECTION('',(1.,0.,0.));
#324=DIRECTION('',(0.,0.,1.));
#325=DIRECTION('',(1.,0.,0.));
#326=DIRECTION('',(0.,0.,1.));
#327=DIRECTION('',(1.,0.,0.));
#328=DIRECTION('',(0.,0.,1.));
#329=DIRECTION('',(1.,0.,0.));
#330=DIRECTION('',(0.,0.,1.));
#331=DIRECTION('',(1.,0.,0.));
#332=DIRECTION('',(0.,0.,1.));
#333=DIRECTION('',(1.,0.,0.));
#334=DIRECTION('',(0.,0.,-1.));
#335=DIRECTION('',(0.,0.,1.));
#336=DIRECTION('',(0.,-1.,0.));
#337=DIRECTION('',(0.,0.,-1.));
#338=DIRECTION('',(0.,0.,-1.));
#339=DIRECTION('',(0.,1.,0.));
#340=DIRECTION('',(0.,0.,-1.));
#341=DIRECTION('',(0.,1.,0.));
#342=DIRECTION('',(0.,0.,-1.));
#343=DIRECTION('',(0.,-1.,0.));
#344=DIRECTION('',(0.,0.,-1.));
#345=DIRECTION('',(1.,0.,0.));
#346=DIRECTION('',(0.,0.,1.));
#347=DIRECTION('',(0.,1.,0.));
#348=DIRECTION('',(0.,0.,-1.));
#349=DIRECTION('',(0.,1.,0.));
#350=DIRECTION('',(0.,0.,-1.));
#351=DIRECTION('',(0.,1.,0.));
#352=DIRECTION('',(0.,0.707106781186547,-0.707106781186547));
#353=DIRECTION('',(0.,0.,1.));
#354=DIRECTION('',(0.,-1.,0.));
#355=DIRECTION('',(0.,-0.707106781186547,-0.707106781186547));
#356=DIRECTION('',(0.,0.,1.));
#357=DIRECTION('',(0.,-1.,0.));
#358=DIRECTION('',(0.,0.,-1.));
#359=DIRECTION('',(0.,1.,-3.44789759200359E-18));
#360=DIRECTION('',(0.,0.,1.));
#361=DIRECTION('',(0.,1.,0.));
#362=DIRECTION('',(0.,0.,1.));
#363=DIRECTION('',(-1.,0.,0.));
#364=DIRECTION('',(0.,0.,1.));
#365=DIRECTION('',(0.,1.,0.));
#366=DIRECTION('',(0.,0.,-1.));
#367=DIRECTION('',(0.,1.,-3.44789759200359E-18));
#368=DIRECTION('',(0.,0.,1.));
#369=DIRECTION('',(0.,0.,-1.));
#370=DIRECTION('',(0.,-1.,0.));
#371=DIRECTION('',(0.,0.,1.));
#372=DIRECTION('',(0.,0.,-1.));
#373=DIRECTION('',(0.,1.,0.));
#374=DIRECTION('',(0.,0.,-1.));
#375=DIRECTION('',(0.,1.,0.));
#376=DIRECTION('',(0.,0.,-1.));
#377=DIRECTION('',(0.,1.,0.));
#378=DIRECTION('',(0.,0.,-1.));
#379=DIRECTION('',(0.,1.,0.));
#380=DIRECTION('',(0.,-0.707106781186547,-0.707106781186547));
#381=DIRECTION('',(0.,0.707106781186547,-0.707106781186547));
#382=DIRECTION('',(0.,0.,-1.));
#383=DIRECTION('',(0.,1.,0.));
#384=DIRECTION('',(0.,0.,-1.));
#385=DIRECTION('',(0.,-1.,0.));
#386=DIRECTION('',(0.,0.,-1.));
#387=DIRECTION('',(0.,1.,0.));
#388=DIRECTION('',(0.,0.,-1.));
#389=DIRECTION('',(0.,1.,0.));
#390=CARTESIAN_POINT('',(0.,0.,0.));
#391=CARTESIAN_POINT('CRP',(-6.5,0.,0.));
#392=CARTESIAN_POINT('',(0.,0.,0.));
#393=CARTESIAN_POINT('',(-6.5,0.,0.));
#394=CARTESIAN_POINT('',(-6.5,0.,26.));
#395=CARTESIAN_POINT('',(0.,0.,26.));
#396=CARTESIAN_POINT('',(0.,0.,0.));
#397=CARTESIAN_POINT('',(0.,0.,0.));
#398=CARTESIAN_POINT('',(0.,0.,0.));
#399=CARTESIAN_POINT('',(0.,0.,90.));
#400=CARTESIAN_POINT('',(0.,0.,60.));
#401=CARTESIAN_POINT('',(0.,0.,0.));
#402=CARTESIAN_POINT('',(0.,0.,0.));
#403=CARTESIAN_POINT('',(0.,0.,0.));
#404=CARTESIAN_POINT('',(0.,0.,0.));
#405=CARTESIAN_POINT('',(0.,0.,0.));
#406=CARTESIAN_POINT('',(0.,-6.5,26.));
#407=CARTESIAN_POINT('',(0.,-6.5,26.));
#408=CARTESIAN_POINT('',(0.,-6.5,0.));
#409=CARTESIAN_POINT('',(0.,0.,0.));
#410=CARTESIAN_POINT('',(0.,6.5,0.));
#411=CARTESIAN_POINT('',(0.,6.5,26.));
#412=CARTESIAN_POINT('',(0.,6.5,26.));
#413=CARTESIAN_POINT('',(0.,0.,26.));
#414=CARTESIAN_POINT('',(0.,0.,94.5));
#415=CARTESIAN_POINT('',(0.,0.,26.));
#416=CARTESIAN_POINT('',(150.,150.,26.));
#417=CARTESIAN_POINT('',(0.,0.,0.));
#418=CARTESIAN_POINT('',(0.,0.,94.5));
#419=CARTESIAN_POINT('',(0.,-1.652758930043E-14,0.));
#420=CARTESIAN_POINT('',(0.,6.,26.5));
#421=CARTESIAN_POINT('',(0.,6.,26.5));
#422=CARTESIAN_POINT('',(0.,6.5,26.));
#423=CARTESIAN_POINT('',(0.,-1.170554252879E-14,26.5));
#424=CARTESIAN_POINT('',(0.,-6.,26.5));
#425=CARTESIAN_POINT('',(0.,-6.,26.5));
#426=CARTESIAN_POINT('',(0.,-6.5,26.));
#427=CARTESIAN_POINT('',(0.,-1.170554252879E-14,26.));
#428=CARTESIAN_POINT('',(0.,-1.170554252879E-14,26.25));
#429=CARTESIAN_POINT('',(0.,-1.170554252879E-14,26.));
#430=CARTESIAN_POINT('',(-150.,150.,26.));
#431=CARTESIAN_POINT('',(0.,-1.170554252879E-14,26.5));
#432=CARTESIAN_POINT('',(0.,-1.170554252879E-14,26.25));
#433=CARTESIAN_POINT('',(0.,-6.,89.5));
#434=CARTESIAN_POINT('',(0.,-6.,89.5));
#435=CARTESIAN_POINT('',(0.,0.,89.5));
#436=CARTESIAN_POINT('',(0.,6.,89.5));
#437=CARTESIAN_POINT('',(0.,6.,89.5));
#438=CARTESIAN_POINT('',(0.,0.,94.5));
#439=CARTESIAN_POINT('',(0.,0.,89.5));
#440=CARTESIAN_POINT('',(0.,0.,94.5));
#441=CARTESIAN_POINT('',(0.,0.,90.));
#442=CARTESIAN_POINT('',(0.,5.5,90.));
#443=CARTESIAN_POINT('',(0.,-5.5,90.));
#444=CARTESIAN_POINT('',(0.,-5.5,90.));
#445=CARTESIAN_POINT('',(0.,5.5,90.));
#446=CARTESIAN_POINT('',(0.,0.,89.75));
#447=CARTESIAN_POINT('',(0.,0.,90.));
#448=CARTESIAN_POINT('',(0.,0.,89.75));
#449=CARTESIAN_POINT('',(0.,0.,90.));
#450=MECHANICAL_DESIGN_GEOMETRIC_PRESENTATION_REPRESENTATION('',(#232,#233,
#234,#235,#236,#237,#238,#239,#240,#241,#242,#243,#244,#245,#246,#247,#248),
#451);
#451=(
GEOMETRIC_REPRESENTATION_CONTEXT(3)
GLOBAL_UNCERTAINTY_ASSIGNED_CONTEXT((#452))
GLOBAL_UNIT_ASSIGNED_CONTEXT((#458,#454,#453))
REPRESENTATION_CONTEXT('MSMHZDD1300','TOP_LEVEL_ASSEMBLY_PART')
);
#452=UNCERTAINTY_MEASURE_WITH_UNIT(LENGTH_MEASURE(2.E-5),#458,
'DISTANCE_ACCURACY_VALUE','Maximum Tolerance applied to model');
#453=(
NAMED_UNIT(*)
SI_UNIT($,.STERADIAN.)
SOLID_ANGLE_UNIT()
);
#454=(
CONVERSION_BASED_UNIT('DEGREE',#456)
NAMED_UNIT(#455)
PLANE_ANGLE_UNIT()
);
#455=DIMENSIONAL_EXPONENTS(0.,0.,0.,0.,0.,0.,0.);
#456=PLANE_ANGLE_MEASURE_WITH_UNIT(PLANE_ANGLE_MEASURE(0.0174532925),#457);
#457=(
NAMED_UNIT(*)
PLANE_ANGLE_UNIT()
SI_UNIT($,.RADIAN.)
);
#458=(
LENGTH_UNIT()
NAMED_UNIT(*)
SI_UNIT(.MILLI.,.METRE.)
);
ENDSEC;
END-ISO-10303-21;
