ISO-10303-21;
HEADER;
/* Generated by software containing ST-Developer
 * from STEP Tools, Inc. (www.steptools.com) 
 */
/* OPTION: using custom schema-name function */

FILE_DESCRIPTION(
/* description */ (''),
/* implementation_level */ '2;1');

FILE_NAME(
/* name */ 'MSP0300SB.stp',
/* time_stamp */ '2023-03-14T11:41:50+09:00',
/* author */ (''),
/* organization */ (''),
/* preprocessor_version */ 'ST-DEVELOPER v16',
/* originating_system */ 'SIEMENS PLM Software NX 10.0',
/* authorisation */ '');

FILE_SCHEMA (('AUTOMOTIVE_DESIGN { 1 0 10303 214 3 1 1 1 }'));
ENDSEC;

DATA;
#10=CONSTRUCTIVE_GEOMETRY_REPRESENTATION_RELATIONSHIP(
'supplemental geometry','',#26,#11);
#11=CONSTRUCTIVE_GEOMETRY_REPRESENTATION('supplemental geometry',(#226,
#227,#228,#229,#230,#231,#232,#233,#234,#235),#366);
#12=GEOMETRICALLY_BOUNDED_WIREFRAME_SHAPE_REPRESENTATION(
'MSP0300SB-None',(#27),#366);
#13=SHAPE_REPRESENTATION_RELATIONSHIP('None',
'relationship between MSP0300SB-None and MSP0300SB-None',#26,#15);
#14=SHAPE_REPRESENTATION_RELATIONSHIP('None',
'relationship between MSP0300SB-None and MSP0300SB-None',#26,#12);
#15=ADVANCED_BREP_SHAPE_REPRESENTATION('MSP0300SB-None',(#40,#41),#366);
#16=SHAPE_DEFINITION_REPRESENTATION(#17,#26);
#17=PRODUCT_DEFINITION_SHAPE('','SHAPE FOR MSP0300SB_ASM.',#18);
#18=PRODUCT_DEFINITION('part definition','',#20,#19);
#19=PRODUCT_DEFINITION_CONTEXT('part definition',#25,'design');
#20=PRODUCT_DEFINITION_FORMATION_WITH_SPECIFIED_SOURCE(' ',' ',#22,
 .NOT_KNOWN.);
#21=PRODUCT_RELATED_PRODUCT_CATEGORY('part','',(#22));
#22=PRODUCT('MSP0300SB_ASM','MSP0300SB_ASM','NOT SPECIFIED',(#23));
#23=PRODUCT_CONTEXT('',#25,'mechanical');
#24=APPLICATION_PROTOCOL_DEFINITION('international standard',
'automotive_design',2010,#25);
#25=APPLICATION_CONTEXT(
'core data for automotive mechanical design processes');
#26=SHAPE_REPRESENTATION('MSP0300SB-None',(#225),#366);
#27=GEOMETRIC_CURVE_SET('None',(#319,#167,#168,#169));
#28=CYLINDRICAL_SURFACE('',#243,1.5);
#29=CYLINDRICAL_SURFACE('',#247,1.5);
#30=SURFACE_STYLE_USAGE(.BOTH.,#32);
#31=SURFACE_STYLE_USAGE(.BOTH.,#33);
#32=SURFACE_SIDE_STYLE('',(#34));
#33=SURFACE_SIDE_STYLE('',(#35));
#34=SURFACE_STYLE_FILL_AREA(#36);
#35=SURFACE_STYLE_FILL_AREA(#37);
#36=FILL_AREA_STYLE('',(#38));
#37=FILL_AREA_STYLE('',(#39));
#38=FILL_AREA_STYLE_COLOUR('',#139);
#39=FILL_AREA_STYLE_COLOUR('',#140);
#40=MANIFOLD_SOLID_BREP('CUT',#42);
#41=MANIFOLD_SOLID_BREP('NOCUT',#43);
#42=CLOSED_SHELL('',(#47,#48,#49));
#43=CLOSED_SHELL('',(#50,#51,#52,#53,#54,#55));
#44=PLANE('',#239);
#45=PLANE('',#245);
#46=PLANE('',#252);
#47=ADVANCED_FACE('',(#60),#56,.T.);
#48=ADVANCED_FACE('',(#61),#44,.F.);
#49=ADVANCED_FACE('',(#62),#57,.T.);
#50=ADVANCED_FACE('',(#63),#28,.T.);
#51=ADVANCED_FACE('',(#64),#45,.F.);
#52=ADVANCED_FACE('',(#65),#29,.T.);
#53=ADVANCED_FACE('',(#66),#58,.T.);
#54=ADVANCED_FACE('',(#67),#59,.T.);
#55=ADVANCED_FACE('',(#68),#46,.F.);
#56=CONICAL_SURFACE('',#237,0.765,45.);
#57=CONICAL_SURFACE('',#240,0.765,45.);
#58=CONICAL_SURFACE('',#249,1.35,45.);
#59=CONICAL_SURFACE('',#251,1.35,45.);
#60=FACE_OUTER_BOUND('',#69,.T.);
#61=FACE_OUTER_BOUND('',#70,.T.);
#62=FACE_OUTER_BOUND('',#71,.T.);
#63=FACE_OUTER_BOUND('',#72,.T.);
#64=FACE_OUTER_BOUND('',#73,.T.);
#65=FACE_OUTER_BOUND('',#74,.T.);
#66=FACE_OUTER_BOUND('',#75,.T.);
#67=FACE_OUTER_BOUND('',#76,.T.);
#68=FACE_OUTER_BOUND('',#77,.T.);
#69=EDGE_LOOP('',(#86,#87,#88));
#70=EDGE_LOOP('',(#89,#90));
#71=EDGE_LOOP('',(#91,#92,#93));
#72=EDGE_LOOP('',(#94,#95,#96,#97));
#73=EDGE_LOOP('',(#98,#99));
#74=EDGE_LOOP('',(#100,#101,#102,#103));
#75=EDGE_LOOP('',(#104,#105,#106,#107));
#76=EDGE_LOOP('',(#108,#109,#110,#111));
#77=EDGE_LOOP('',(#112,#113));
#78=CIRCLE('',#236,1.5);
#79=CIRCLE('',#238,1.5);
#80=CIRCLE('',#241,1.5);
#81=CIRCLE('',#242,1.5);
#82=CIRCLE('',#244,1.5);
#83=CIRCLE('',#246,1.5);
#84=CIRCLE('',#248,1.2);
#85=CIRCLE('',#250,1.2);
#86=ORIENTED_EDGE('',*,*,#123,.T.);
#87=ORIENTED_EDGE('',*,*,#124,.F.);
#88=ORIENTED_EDGE('',*,*,#125,.T.);
#89=ORIENTED_EDGE('',*,*,#126,.F.);
#90=ORIENTED_EDGE('',*,*,#125,.F.);
#91=ORIENTED_EDGE('',*,*,#124,.T.);
#92=ORIENTED_EDGE('',*,*,#123,.F.);
#93=ORIENTED_EDGE('',*,*,#126,.T.);
#94=ORIENTED_EDGE('',*,*,#127,.F.);
#95=ORIENTED_EDGE('',*,*,#128,.T.);
#96=ORIENTED_EDGE('',*,*,#129,.T.);
#97=ORIENTED_EDGE('',*,*,#130,.T.);
#98=ORIENTED_EDGE('',*,*,#131,.F.);
#99=ORIENTED_EDGE('',*,*,#130,.F.);
#100=ORIENTED_EDGE('',*,*,#129,.F.);
#101=ORIENTED_EDGE('',*,*,#132,.T.);
#102=ORIENTED_EDGE('',*,*,#127,.T.);
#103=ORIENTED_EDGE('',*,*,#131,.T.);
#104=ORIENTED_EDGE('',*,*,#132,.F.);
#105=ORIENTED_EDGE('',*,*,#133,.T.);
#106=ORIENTED_EDGE('',*,*,#134,.T.);
#107=ORIENTED_EDGE('',*,*,#135,.F.);
#108=ORIENTED_EDGE('',*,*,#136,.T.);
#109=ORIENTED_EDGE('',*,*,#133,.F.);
#110=ORIENTED_EDGE('',*,*,#128,.F.);
#111=ORIENTED_EDGE('',*,*,#135,.T.);
#112=ORIENTED_EDGE('',*,*,#136,.F.);
#113=ORIENTED_EDGE('',*,*,#134,.F.);
#114=VERTEX_POINT('',#334);
#115=VERTEX_POINT('',#335);
#116=VERTEX_POINT('',#337);
#117=VERTEX_POINT('',#344);
#118=VERTEX_POINT('',#345);
#119=VERTEX_POINT('',#347);
#120=VERTEX_POINT('',#349);
#121=VERTEX_POINT('',#357);
#122=VERTEX_POINT('',#359);
#123=EDGE_CURVE('',#114,#115,#173,.T.);
#124=EDGE_CURVE('',#116,#115,#174,.T.);
#125=EDGE_CURVE('',#116,#114,#78,.T.);
#126=EDGE_CURVE('',#114,#116,#79,.T.);
#127=EDGE_CURVE('',#117,#118,#175,.T.);
#128=EDGE_CURVE('',#117,#119,#80,.T.);
#129=EDGE_CURVE('',#119,#120,#176,.T.);
#130=EDGE_CURVE('',#120,#118,#81,.T.);
#131=EDGE_CURVE('',#118,#120,#82,.T.);
#132=EDGE_CURVE('',#119,#117,#83,.T.);
#133=EDGE_CURVE('',#119,#121,#177,.T.);
#134=EDGE_CURVE('',#121,#122,#84,.T.);
#135=EDGE_CURVE('',#117,#122,#178,.T.);
#136=EDGE_CURVE('',#122,#121,#85,.T.);
#137=COLOUR_RGB('Strong Stone',0.576470588235294,0.54508278019379,0.392156862745098);
#138=COLOUR_RGB('Medium Umber',0.372533760585946,0.313725490196078,0.270572976272221);
#139=COLOUR_RGB('Light Gray',0.8,0.8,0.8);
#140=COLOUR_RGB('non-cutting part and shank',0.501960784313725,0.501960784313725,
0.501960784313725);
#141=CURVE_STYLE('',#154,POSITIVE_LENGTH_MEASURE(0.18),#224);
#142=CURVE_STYLE('',#155,POSITIVE_LENGTH_MEASURE(0.18),#224);
#143=CURVE_STYLE('',#156,POSITIVE_LENGTH_MEASURE(0.18),#224);
#144=CURVE_STYLE('',#157,POSITIVE_LENGTH_MEASURE(0.13),#137);
#145=CURVE_STYLE('',#158,POSITIVE_LENGTH_MEASURE(0.13),#137);
#146=CURVE_STYLE('',#159,POSITIVE_LENGTH_MEASURE(0.13),#138);
#147=CURVE_STYLE('',#160,POSITIVE_LENGTH_MEASURE(0.13),#138);
#148=CURVE_STYLE('',#161,POSITIVE_LENGTH_MEASURE(0.13),#137);
#149=CURVE_STYLE('',#162,POSITIVE_LENGTH_MEASURE(0.13),#137);
#150=CURVE_STYLE('',#163,POSITIVE_LENGTH_MEASURE(0.13),#138);
#151=CURVE_STYLE('',#164,POSITIVE_LENGTH_MEASURE(0.13),#137);
#152=CURVE_STYLE('',#165,POSITIVE_LENGTH_MEASURE(0.13),#137);
#153=CURVE_STYLE('',#166,POSITIVE_LENGTH_MEASURE(0.13),#137);
#154=DRAUGHTING_PRE_DEFINED_CURVE_FONT('continuous');
#155=DRAUGHTING_PRE_DEFINED_CURVE_FONT('continuous');
#156=DRAUGHTING_PRE_DEFINED_CURVE_FONT('continuous');
#157=DRAUGHTING_PRE_DEFINED_CURVE_FONT('continuous');
#158=DRAUGHTING_PRE_DEFINED_CURVE_FONT('continuous');
#159=DRAUGHTING_PRE_DEFINED_CURVE_FONT('continuous');
#160=DRAUGHTING_PRE_DEFINED_CURVE_FONT('continuous');
#161=DRAUGHTING_PRE_DEFINED_CURVE_FONT('continuous');
#162=DRAUGHTING_PRE_DEFINED_CURVE_FONT('continuous');
#163=DRAUGHTING_PRE_DEFINED_CURVE_FONT('continuous');
#164=DRAUGHTING_PRE_DEFINED_CURVE_FONT('continuous');
#165=DRAUGHTING_PRE_DEFINED_CURVE_FONT('continuous');
#166=DRAUGHTING_PRE_DEFINED_CURVE_FONT('continuous');
#167=TRIMMED_CURVE('',#170,(PARAMETER_VALUE(0.)),(PARAMETER_VALUE(1.)),
 .T.,.PARAMETER.);
#168=TRIMMED_CURVE('',#171,(PARAMETER_VALUE(0.)),(PARAMETER_VALUE(1.)),
 .T.,.PARAMETER.);
#169=TRIMMED_CURVE('',#172,(PARAMETER_VALUE(0.)),(PARAMETER_VALUE(1.)),
 .T.,.PARAMETER.);
#170=LINE('',#320,#179);
#171=LINE('',#321,#180);
#172=LINE('',#322,#181);
#173=LINE('',#333,#182);
#174=LINE('',#336,#183);
#175=LINE('',#343,#184);
#176=LINE('',#348,#185);
#177=LINE('',#356,#186);
#178=LINE('',#360,#187);
#179=VECTOR('',#255,2.12132034355986);
#180=VECTOR('',#256,1.5);
#181=VECTOR('',#257,1.5);
#182=VECTOR('',#278,1.);
#183=VECTOR('',#279,1.);
#184=VECTOR('',#290,1.);
#185=VECTOR('',#293,1.);
#186=VECTOR('',#306,1.);
#187=VECTOR('',#309,1.);
#188=PRESENTATION_LAYER_ASSIGNMENT('1','Layer 1',(#319,#167,#168,#169,#226,
#227,#230,#231,#232,#233,#234,#235,#40,#41));
#189=PRESENTATION_LAYER_ASSIGNMENT('2','Layer 2',(#228,#229));
#190=STYLED_ITEM('',(#206),#319);
#191=STYLED_ITEM('',(#207),#167);
#192=STYLED_ITEM('',(#208),#168);
#193=STYLED_ITEM('',(#209),#169);
#194=STYLED_ITEM('',(#210),#226);
#195=STYLED_ITEM('',(#211),#227);
#196=STYLED_ITEM('',(#212),#228);
#197=STYLED_ITEM('',(#213),#229);
#198=STYLED_ITEM('',(#214),#230);
#199=STYLED_ITEM('',(#215),#231);
#200=STYLED_ITEM('',(#216),#232);
#201=STYLED_ITEM('',(#217),#233);
#202=STYLED_ITEM('',(#218),#234);
#203=STYLED_ITEM('',(#219),#235);
#204=STYLED_ITEM('',(#220),#40);
#205=STYLED_ITEM('',(#221),#41);
#206=PRESENTATION_STYLE_ASSIGNMENT((#222));
#207=PRESENTATION_STYLE_ASSIGNMENT((#141));
#208=PRESENTATION_STYLE_ASSIGNMENT((#142));
#209=PRESENTATION_STYLE_ASSIGNMENT((#143));
#210=PRESENTATION_STYLE_ASSIGNMENT((#144));
#211=PRESENTATION_STYLE_ASSIGNMENT((#145));
#212=PRESENTATION_STYLE_ASSIGNMENT((#146));
#213=PRESENTATION_STYLE_ASSIGNMENT((#147));
#214=PRESENTATION_STYLE_ASSIGNMENT((#148));
#215=PRESENTATION_STYLE_ASSIGNMENT((#149));
#216=PRESENTATION_STYLE_ASSIGNMENT((#150));
#217=PRESENTATION_STYLE_ASSIGNMENT((#151));
#218=PRESENTATION_STYLE_ASSIGNMENT((#152));
#219=PRESENTATION_STYLE_ASSIGNMENT((#153));
#220=PRESENTATION_STYLE_ASSIGNMENT((#30));
#221=PRESENTATION_STYLE_ASSIGNMENT((#31));
#222=POINT_STYLE('',#223,POSITIVE_LENGTH_MEASURE(3.),#224);
#223=PRE_DEFINED_POINT_MARKER_SYMBOL('plus');
#224=DRAUGHTING_PRE_DEFINED_COLOUR('blue');
#225=AXIS2_PLACEMENT_3D('',#318,#253,#254);
#226=AXIS2_PLACEMENT_3D('',#323,#258,#259);
#227=AXIS2_PLACEMENT_3D('',#324,#260,#261);
#228=AXIS2_PLACEMENT_3D('CIP',#325,#262,#263);
#229=AXIS2_PLACEMENT_3D('PCS',#326,#264,#265);
#230=AXIS2_PLACEMENT_3D('MCS',#327,#266,#267);
#231=AXIS2_PLACEMENT_3D('',#328,#268,#269);
#232=AXIS2_PLACEMENT_3D('STEP_TEMP_10_1',#329,#270,#271);
#233=AXIS2_PLACEMENT_3D('',#330,#272,#273);
#234=AXIS2_PLACEMENT_3D('',#331,#274,#275);
#235=AXIS2_PLACEMENT_3D('',#332,#276,#277);
#236=AXIS2_PLACEMENT_3D('',#338,#280,#281);
#237=AXIS2_PLACEMENT_3D('',#339,#282,#283);
#238=AXIS2_PLACEMENT_3D('',#340,#284,#285);
#239=AXIS2_PLACEMENT_3D('',#341,#286,#287);
#240=AXIS2_PLACEMENT_3D('',#342,#288,#289);
#241=AXIS2_PLACEMENT_3D('',#346,#291,#292);
#242=AXIS2_PLACEMENT_3D('',#350,#294,#295);
#243=AXIS2_PLACEMENT_3D('',#351,#296,#297);
#244=AXIS2_PLACEMENT_3D('',#352,#298,#299);
#245=AXIS2_PLACEMENT_3D('',#353,#300,#301);
#246=AXIS2_PLACEMENT_3D('',#354,#302,#303);
#247=AXIS2_PLACEMENT_3D('',#355,#304,#305);
#248=AXIS2_PLACEMENT_3D('',#358,#307,#308);
#249=AXIS2_PLACEMENT_3D('',#361,#310,#311);
#250=AXIS2_PLACEMENT_3D('',#362,#312,#313);
#251=AXIS2_PLACEMENT_3D('',#363,#314,#315);
#252=AXIS2_PLACEMENT_3D('',#364,#316,#317);
#253=DIRECTION('',(0.,0.,1.));
#254=DIRECTION('',(1.,0.,0.));
#255=DIRECTION('',(-0.707106781186548,0.,0.707106781186548));
#256=DIRECTION('',(1.,0.,0.));
#257=DIRECTION('',(0.,0.,-1.));
#258=DIRECTION('',(0.,0.,1.));
#259=DIRECTION('',(1.,0.,0.));
#260=DIRECTION('',(0.,0.,1.));
#261=DIRECTION('',(1.,0.,0.));
#262=DIRECTION('',(0.,0.,1.));
#263=DIRECTION('',(1.,0.,0.));
#264=DIRECTION('',(0.,0.,1.));
#265=DIRECTION('',(1.,0.,0.));
#266=DIRECTION('',(0.,0.,1.));
#267=DIRECTION('',(1.,0.,0.));
#268=DIRECTION('',(0.,0.,1.));
#269=DIRECTION('',(1.,0.,0.));
#270=DIRECTION('',(0.,0.,1.));
#271=DIRECTION('',(1.,0.,0.));
#272=DIRECTION('',(0.,0.,1.));
#273=DIRECTION('',(1.,0.,0.));
#274=DIRECTION('',(0.,0.,1.));
#275=DIRECTION('',(1.,0.,0.));
#276=DIRECTION('',(0.,0.,1.));
#277=DIRECTION('',(1.,0.,0.));
#278=DIRECTION('',(0.,0.707106781186547,-0.707106781186547));
#279=DIRECTION('',(0.,-0.707106781186547,-0.707106781186547));
#280=DIRECTION('',(0.,0.,-1.));
#281=DIRECTION('',(0.,1.,0.));
#282=DIRECTION('',(0.,0.,1.));
#283=DIRECTION('',(0.,-1.,-9.53368584819857E-17));
#284=DIRECTION('',(0.,0.,-1.));
#285=DIRECTION('',(0.,-1.,0.));
#286=DIRECTION('',(0.,0.,-1.));
#287=DIRECTION('',(1.,0.,0.));
#288=DIRECTION('',(0.,0.,1.));
#289=DIRECTION('',(0.,-1.,-9.53368584819857E-17));
#290=DIRECTION('',(0.,0.,-1.));
#291=DIRECTION('',(0.,0.,-1.));
#292=DIRECTION('',(0.,1.,0.));
#293=DIRECTION('',(0.,0.,-1.));
#294=DIRECTION('',(0.,0.,1.));
#295=DIRECTION('',(0.,-1.,0.));
#296=DIRECTION('',(0.,0.,-1.));
#297=DIRECTION('',(0.,1.,0.));
#298=DIRECTION('',(0.,0.,1.));
#299=DIRECTION('',(0.,1.,0.));
#300=DIRECTION('',(0.,0.,1.));
#301=DIRECTION('',(-1.,0.,0.));
#302=DIRECTION('',(0.,0.,-1.));
#303=DIRECTION('',(0.,-1.,0.));
#304=DIRECTION('',(0.,0.,-1.));
#305=DIRECTION('',(0.,1.,0.));
#306=DIRECTION('',(0.,0.707106781186498,0.707106781186598));
#307=DIRECTION('',(0.,0.,-1.));
#308=DIRECTION('',(0.,-1.,0.));
#309=DIRECTION('',(0.,-0.707106781186498,0.707106781186598));
#310=DIRECTION('',(0.,0.,-1.));
#311=DIRECTION('',(0.,1.,4.85067731835528E-17));
#312=DIRECTION('',(0.,0.,-1.));
#313=DIRECTION('',(0.,1.,0.));
#314=DIRECTION('',(0.,0.,-1.));
#315=DIRECTION('',(0.,1.,4.85067731835528E-17));
#316=DIRECTION('',(0.,0.,-1.));
#317=DIRECTION('',(0.,1.,0.));
#318=CARTESIAN_POINT('',(0.,0.,0.));
#319=CARTESIAN_POINT('CRP',(-1.5,0.,1.5));
#320=CARTESIAN_POINT('',(0.,0.,0.));
#321=CARTESIAN_POINT('',(-1.5,0.,1.5));
#322=CARTESIAN_POINT('',(0.,0.,1.5));
#323=CARTESIAN_POINT('',(0.,0.,0.));
#324=CARTESIAN_POINT('',(0.,0.,0.));
#325=CARTESIAN_POINT('',(0.,0.,0.));
#326=CARTESIAN_POINT('',(0.,0.,38.));
#327=CARTESIAN_POINT('',(0.,0.,9.));
#328=CARTESIAN_POINT('',(0.,0.,0.));
#329=CARTESIAN_POINT('',(0.,0.,0.));
#330=CARTESIAN_POINT('',(0.,0.,0.));
#331=CARTESIAN_POINT('',(0.,0.,0.));
#332=CARTESIAN_POINT('',(0.,0.,0.));
#333=CARTESIAN_POINT('',(0.,-1.5,1.5));
#334=CARTESIAN_POINT('',(0.,-1.5,1.5));
#335=CARTESIAN_POINT('',(0.,0.,0.));
#336=CARTESIAN_POINT('',(0.,1.5,1.5));
#337=CARTESIAN_POINT('',(0.,1.5,1.5));
#338=CARTESIAN_POINT('',(0.,0.,1.5));
#339=CARTESIAN_POINT('',(0.,0.,0.765));
#340=CARTESIAN_POINT('',(0.,0.,1.5));
#341=CARTESIAN_POINT('',(150.,150.,1.5));
#342=CARTESIAN_POINT('',(0.,0.,0.765));
#343=CARTESIAN_POINT('',(0.,1.5,37.7));
#344=CARTESIAN_POINT('',(0.,1.5,37.7));
#345=CARTESIAN_POINT('',(0.,1.5,1.5));
#346=CARTESIAN_POINT('',(0.,0.,37.7));
#347=CARTESIAN_POINT('',(0.,-1.5,37.7));
#348=CARTESIAN_POINT('',(0.,-1.5,37.7));
#349=CARTESIAN_POINT('',(0.,-1.5,1.5));
#350=CARTESIAN_POINT('',(0.,0.,1.5));
#351=CARTESIAN_POINT('',(0.,0.,39.9));
#352=CARTESIAN_POINT('',(0.,0.,1.5));
#353=CARTESIAN_POINT('',(-150.,150.,1.5));
#354=CARTESIAN_POINT('',(0.,0.,37.7));
#355=CARTESIAN_POINT('',(0.,0.,39.9));
#356=CARTESIAN_POINT('',(0.,-1.2,38.));
#357=CARTESIAN_POINT('',(0.,-1.2,38.));
#358=CARTESIAN_POINT('',(0.,0.,38.));
#359=CARTESIAN_POINT('',(0.,1.2,38.));
#360=CARTESIAN_POINT('',(0.,1.2,38.));
#361=CARTESIAN_POINT('',(0.,0.,37.85));
#362=CARTESIAN_POINT('',(0.,0.,38.));
#363=CARTESIAN_POINT('',(0.,0.,37.85));
#364=CARTESIAN_POINT('',(0.,0.,38.));
#365=MECHANICAL_DESIGN_GEOMETRIC_PRESENTATION_REPRESENTATION('',(#190,#191,
#192,#193,#194,#195,#196,#197,#198,#199,#200,#201,#202,#203,#204,#205),
#366);
#366=(
GEOMETRIC_REPRESENTATION_CONTEXT(3)
GLOBAL_UNCERTAINTY_ASSIGNED_CONTEXT((#367))
GLOBAL_UNIT_ASSIGNED_CONTEXT((#373,#369,#368))
REPRESENTATION_CONTEXT('MSP0300SB','TOP_LEVEL_ASSEMBLY_PART')
);
#367=UNCERTAINTY_MEASURE_WITH_UNIT(LENGTH_MEASURE(2.E-5),#373,
'DISTANCE_ACCURACY_VALUE','Maximum Tolerance applied to model');
#368=(
NAMED_UNIT(*)
SI_UNIT($,.STERADIAN.)
SOLID_ANGLE_UNIT()
);
#369=(
CONVERSION_BASED_UNIT('DEGREE',#371)
NAMED_UNIT(#370)
PLANE_ANGLE_UNIT()
);
#370=DIMENSIONAL_EXPONENTS(0.,0.,0.,0.,0.,0.,0.);
#371=PLANE_ANGLE_MEASURE_WITH_UNIT(PLANE_ANGLE_MEASURE(0.0174532925),#372);
#372=(
NAMED_UNIT(*)
PLANE_ANGLE_UNIT()
SI_UNIT($,.RADIAN.)
);
#373=(
LENGTH_UNIT()
NAMED_UNIT(*)
SI_UNIT(.MILLI.,.METRE.)
);
ENDSEC;
END-ISO-10303-21;
