ISO-10303-21;
HEADER;
/* Generated by software containing ST-Developer
 * from STEP Tools, Inc. (www.steptools.com) 
 */
/* OPTION: using custom schema-name function */

FILE_DESCRIPTION(
/* description */ (''),
/* implementation_level */ '2;1');

FILE_NAME(
/* name */ 'MSE0026SB.stp',
/* time_stamp */ '2023-03-06T14:49:21+09:00',
/* author */ (''),
/* organization */ (''),
/* preprocessor_version */ 'ST-DEVELOPER v16',
/* originating_system */ 'SIEMENS PLM Software NX 10.0',
/* authorisation */ '');

FILE_SCHEMA (('AUTOMOTIVE_DESIGN { 1 0 10303 214 3 1 1 1 }'));
ENDSEC;

DATA;
#10=CONSTRUCTIVE_GEOMETRY_REPRESENTATION_RELATIONSHIP(
'supplemental geometry','',#26,#11);
#11=CONSTRUCTIVE_GEOMETRY_REPRESENTATION('supplemental geometry',(#373,
#374,#375,#376,#377,#378,#379,#380,#381,#382),#625);
#12=GEOMETRICALLY_BOUNDED_WIREFRAME_SHAPE_REPRESENTATION(
'MSE0026SB-None',(#27),#625);
#13=SHAPE_REPRESENTATION_RELATIONSHIP('None',
'relationship between MSE0026SB-None and MSE0026SB-None',#26,#15);
#14=SHAPE_REPRESENTATION_RELATIONSHIP('None',
'relationship between MSE0026SB-None and MSE0026SB-None',#26,#12);
#15=ADVANCED_BREP_SHAPE_REPRESENTATION('MSE0026SB-None',(#38,#39),#625);
#16=SHAPE_DEFINITION_REPRESENTATION(#17,#26);
#17=PRODUCT_DEFINITION_SHAPE('','SHAPE FOR MSE0026SB_ASM.',#18);
#18=PRODUCT_DEFINITION('part definition','',#20,#19);
#19=PRODUCT_DEFINITION_CONTEXT('part definition',#25,'design');
#20=PRODUCT_DEFINITION_FORMATION_WITH_SPECIFIED_SOURCE(' ',' ',#22,
 .NOT_KNOWN.);
#21=PRODUCT_RELATED_PRODUCT_CATEGORY('part','',(#22));
#22=PRODUCT('MSE0026SB_ASM','MSE0026SB_ASM','NOT SPECIFIED',(#23));
#23=PRODUCT_CONTEXT('',#25,'mechanical');
#24=APPLICATION_PROTOCOL_DEFINITION('international standard',
'automotive_design',2010,#25);
#25=APPLICATION_CONTEXT(
'core data for automotive mechanical design processes');
#26=SHAPE_REPRESENTATION('MSE0026SB-None',(#372),#625);
#27=GEOMETRIC_CURVE_SET('None',(#537,#289,#290,#291,#292));
#28=SURFACE_STYLE_USAGE(.BOTH.,#30);
#29=SURFACE_STYLE_USAGE(.BOTH.,#31);
#30=SURFACE_SIDE_STYLE('',(#32));
#31=SURFACE_SIDE_STYLE('',(#33));
#32=SURFACE_STYLE_FILL_AREA(#34);
#33=SURFACE_STYLE_FILL_AREA(#35);
#34=FILL_AREA_STYLE('',(#36));
#35=FILL_AREA_STYLE('',(#37));
#36=FILL_AREA_STYLE_COLOUR('',#259);
#37=FILL_AREA_STYLE_COLOUR('',#260);
#38=MANIFOLD_SOLID_BREP('CUT',#40);
#39=MANIFOLD_SOLID_BREP('NOCUT',#41);
#40=CLOSED_SHELL('',(#53,#54,#55,#56,#57));
#41=CLOSED_SHELL('',(#58,#59,#60,#61,#62,#63,#64,#65,#66,#67,#68,#69,#70,
#71));
#42=CONICAL_SURFACE('',#390,0.0663,65.);
#43=CONICAL_SURFACE('',#391,0.0663,65.);
#44=CONICAL_SURFACE('',#400,0.3150000000001,15.);
#45=CONICAL_SURFACE('',#402,0.3150000000001,15.);
#46=CONICAL_SURFACE('',#408,0.9999999999999,15.);
#47=CONICAL_SURFACE('',#410,0.9999999999999,15.);
#48=CONICAL_SURFACE('',#416,1.326794919243,30.);
#49=CONICAL_SURFACE('',#418,1.326794919243,30.);
#50=PLANE('',#387);
#51=PLANE('',#396);
#52=PLANE('',#419);
#53=ADVANCED_FACE('',(#80),#72,.T.);
#54=ADVANCED_FACE('',(#81),#50,.F.);
#55=ADVANCED_FACE('',(#82),#73,.T.);
#56=ADVANCED_FACE('',(#83),#42,.T.);
#57=ADVANCED_FACE('',(#84),#43,.T.);
#58=ADVANCED_FACE('',(#85),#74,.T.);
#59=ADVANCED_FACE('',(#86),#51,.F.);
#60=ADVANCED_FACE('',(#87),#75,.T.);
#61=ADVANCED_FACE('',(#88),#44,.T.);
#62=ADVANCED_FACE('',(#89),#45,.T.);
#63=ADVANCED_FACE('',(#90),#76,.T.);
#64=ADVANCED_FACE('',(#91),#77,.T.);
#65=ADVANCED_FACE('',(#92),#46,.T.);
#66=ADVANCED_FACE('',(#93),#47,.T.);
#67=ADVANCED_FACE('',(#94),#78,.T.);
#68=ADVANCED_FACE('',(#95),#79,.T.);
#69=ADVANCED_FACE('',(#96),#48,.T.);
#70=ADVANCED_FACE('',(#97),#49,.T.);
#71=ADVANCED_FACE('',(#98),#52,.F.);
#72=CYLINDRICAL_SURFACE('',#385,0.13);
#73=CYLINDRICAL_SURFACE('',#389,0.13);
#74=CYLINDRICAL_SURFACE('',#394,0.13);
#75=CYLINDRICAL_SURFACE('',#398,0.13);
#76=CYLINDRICAL_SURFACE('',#404,0.5);
#77=CYLINDRICAL_SURFACE('',#406,0.5);
#78=CYLINDRICAL_SURFACE('',#412,1.5);
#79=CYLINDRICAL_SURFACE('',#414,1.5);
#80=FACE_OUTER_BOUND('',#99,.T.);
#81=FACE_OUTER_BOUND('',#100,.T.);
#82=FACE_OUTER_BOUND('',#101,.T.);
#83=FACE_OUTER_BOUND('',#102,.T.);
#84=FACE_OUTER_BOUND('',#103,.T.);
#85=FACE_OUTER_BOUND('',#104,.T.);
#86=FACE_OUTER_BOUND('',#105,.T.);
#87=FACE_OUTER_BOUND('',#106,.T.);
#88=FACE_OUTER_BOUND('',#107,.T.);
#89=FACE_OUTER_BOUND('',#108,.T.);
#90=FACE_OUTER_BOUND('',#109,.T.);
#91=FACE_OUTER_BOUND('',#110,.T.);
#92=FACE_OUTER_BOUND('',#111,.T.);
#93=FACE_OUTER_BOUND('',#112,.T.);
#94=FACE_OUTER_BOUND('',#113,.T.);
#95=FACE_OUTER_BOUND('',#114,.T.);
#96=FACE_OUTER_BOUND('',#115,.T.);
#97=FACE_OUTER_BOUND('',#116,.T.);
#98=FACE_OUTER_BOUND('',#117,.T.);
#99=EDGE_LOOP('',(#136,#137,#138,#139));
#100=EDGE_LOOP('',(#140,#141));
#101=EDGE_LOOP('',(#142,#143,#144,#145));
#102=EDGE_LOOP('',(#146,#147,#148));
#103=EDGE_LOOP('',(#149,#150,#151));
#104=EDGE_LOOP('',(#152,#153,#154,#155));
#105=EDGE_LOOP('',(#156,#157));
#106=EDGE_LOOP('',(#158,#159,#160,#161));
#107=EDGE_LOOP('',(#162,#163,#164,#165));
#108=EDGE_LOOP('',(#166,#167,#168,#169));
#109=EDGE_LOOP('',(#170,#171,#172,#173));
#110=EDGE_LOOP('',(#174,#175,#176,#177));
#111=EDGE_LOOP('',(#178,#179,#180,#181));
#112=EDGE_LOOP('',(#182,#183,#184,#185));
#113=EDGE_LOOP('',(#186,#187,#188,#189));
#114=EDGE_LOOP('',(#190,#191,#192,#193));
#115=EDGE_LOOP('',(#194,#195,#196,#197));
#116=EDGE_LOOP('',(#198,#199,#200,#201));
#117=EDGE_LOOP('',(#202,#203));
#118=CIRCLE('',#383,0.13);
#119=CIRCLE('',#384,0.13);
#120=CIRCLE('',#386,0.13);
#121=CIRCLE('',#388,0.13);
#122=CIRCLE('',#392,0.1300000000001);
#123=CIRCLE('',#393,0.13);
#124=CIRCLE('',#395,0.13);
#125=CIRCLE('',#397,0.1300000000001);
#126=CIRCLE('',#399,0.5000000000002);
#127=CIRCLE('',#401,0.5000000000002);
#128=CIRCLE('',#403,0.4999999999999);
#129=CIRCLE('',#405,0.4999999999999);
#130=CIRCLE('',#407,1.5);
#131=CIRCLE('',#409,1.5);
#132=CIRCLE('',#411,1.5);
#133=CIRCLE('',#413,1.5);
#134=CIRCLE('',#415,1.153589838486);
#135=CIRCLE('',#417,1.153589838486);
#136=ORIENTED_EDGE('',*,*,#223,.T.);
#137=ORIENTED_EDGE('',*,*,#224,.T.);
#138=ORIENTED_EDGE('',*,*,#225,.F.);
#139=ORIENTED_EDGE('',*,*,#226,.T.);
#140=ORIENTED_EDGE('',*,*,#227,.F.);
#141=ORIENTED_EDGE('',*,*,#226,.F.);
#142=ORIENTED_EDGE('',*,*,#225,.T.);
#143=ORIENTED_EDGE('',*,*,#228,.T.);
#144=ORIENTED_EDGE('',*,*,#223,.F.);
#145=ORIENTED_EDGE('',*,*,#227,.T.);
#146=ORIENTED_EDGE('',*,*,#229,.T.);
#147=ORIENTED_EDGE('',*,*,#228,.F.);
#148=ORIENTED_EDGE('',*,*,#230,.F.);
#149=ORIENTED_EDGE('',*,*,#224,.F.);
#150=ORIENTED_EDGE('',*,*,#229,.F.);
#151=ORIENTED_EDGE('',*,*,#230,.T.);
#152=ORIENTED_EDGE('',*,*,#231,.F.);
#153=ORIENTED_EDGE('',*,*,#232,.T.);
#154=ORIENTED_EDGE('',*,*,#233,.T.);
#155=ORIENTED_EDGE('',*,*,#234,.T.);
#156=ORIENTED_EDGE('',*,*,#235,.F.);
#157=ORIENTED_EDGE('',*,*,#234,.F.);
#158=ORIENTED_EDGE('',*,*,#233,.F.);
#159=ORIENTED_EDGE('',*,*,#236,.T.);
#160=ORIENTED_EDGE('',*,*,#231,.T.);
#161=ORIENTED_EDGE('',*,*,#235,.T.);
#162=ORIENTED_EDGE('',*,*,#236,.F.);
#163=ORIENTED_EDGE('',*,*,#237,.T.);
#164=ORIENTED_EDGE('',*,*,#238,.F.);
#165=ORIENTED_EDGE('',*,*,#239,.F.);
#166=ORIENTED_EDGE('',*,*,#240,.F.);
#167=ORIENTED_EDGE('',*,*,#237,.F.);
#168=ORIENTED_EDGE('',*,*,#232,.F.);
#169=ORIENTED_EDGE('',*,*,#239,.T.);
#170=ORIENTED_EDGE('',*,*,#241,.T.);
#171=ORIENTED_EDGE('',*,*,#242,.T.);
#172=ORIENTED_EDGE('',*,*,#240,.T.);
#173=ORIENTED_EDGE('',*,*,#243,.F.);
#174=ORIENTED_EDGE('',*,*,#238,.T.);
#175=ORIENTED_EDGE('',*,*,#242,.F.);
#176=ORIENTED_EDGE('',*,*,#244,.T.);
#177=ORIENTED_EDGE('',*,*,#243,.T.);
#178=ORIENTED_EDGE('',*,*,#244,.F.);
#179=ORIENTED_EDGE('',*,*,#245,.T.);
#180=ORIENTED_EDGE('',*,*,#246,.F.);
#181=ORIENTED_EDGE('',*,*,#247,.F.);
#182=ORIENTED_EDGE('',*,*,#248,.F.);
#183=ORIENTED_EDGE('',*,*,#245,.F.);
#184=ORIENTED_EDGE('',*,*,#241,.F.);
#185=ORIENTED_EDGE('',*,*,#247,.T.);
#186=ORIENTED_EDGE('',*,*,#249,.T.);
#187=ORIENTED_EDGE('',*,*,#250,.T.);
#188=ORIENTED_EDGE('',*,*,#248,.T.);
#189=ORIENTED_EDGE('',*,*,#251,.F.);
#190=ORIENTED_EDGE('',*,*,#246,.T.);
#191=ORIENTED_EDGE('',*,*,#250,.F.);
#192=ORIENTED_EDGE('',*,*,#252,.T.);
#193=ORIENTED_EDGE('',*,*,#251,.T.);
#194=ORIENTED_EDGE('',*,*,#252,.F.);
#195=ORIENTED_EDGE('',*,*,#253,.T.);
#196=ORIENTED_EDGE('',*,*,#254,.T.);
#197=ORIENTED_EDGE('',*,*,#255,.F.);
#198=ORIENTED_EDGE('',*,*,#256,.T.);
#199=ORIENTED_EDGE('',*,*,#253,.F.);
#200=ORIENTED_EDGE('',*,*,#249,.F.);
#201=ORIENTED_EDGE('',*,*,#255,.T.);
#202=ORIENTED_EDGE('',*,*,#256,.F.);
#203=ORIENTED_EDGE('',*,*,#254,.F.);
#204=VERTEX_POINT('',#553);
#205=VERTEX_POINT('',#554);
#206=VERTEX_POINT('',#556);
#207=VERTEX_POINT('',#558);
#208=VERTEX_POINT('',#566);
#209=VERTEX_POINT('',#571);
#210=VERTEX_POINT('',#572);
#211=VERTEX_POINT('',#574);
#212=VERTEX_POINT('',#576);
#213=VERTEX_POINT('',#584);
#214=VERTEX_POINT('',#586);
#215=VERTEX_POINT('',#592);
#216=VERTEX_POINT('',#593);
#217=VERTEX_POINT('',#600);
#218=VERTEX_POINT('',#602);
#219=VERTEX_POINT('',#608);
#220=VERTEX_POINT('',#609);
#221=VERTEX_POINT('',#616);
#222=VERTEX_POINT('',#618);
#223=EDGE_CURVE('',#204,#205,#297,.T.);
#224=EDGE_CURVE('',#205,#206,#118,.T.);
#225=EDGE_CURVE('',#207,#206,#298,.T.);
#226=EDGE_CURVE('',#207,#204,#119,.T.);
#227=EDGE_CURVE('',#204,#207,#120,.T.);
#228=EDGE_CURVE('',#206,#205,#121,.T.);
#229=EDGE_CURVE('',#208,#205,#299,.T.);
#230=EDGE_CURVE('',#208,#206,#300,.T.);
#231=EDGE_CURVE('',#209,#210,#301,.T.);
#232=EDGE_CURVE('',#209,#211,#122,.T.);
#233=EDGE_CURVE('',#211,#212,#302,.T.);
#234=EDGE_CURVE('',#212,#210,#123,.T.);
#235=EDGE_CURVE('',#210,#212,#124,.T.);
#236=EDGE_CURVE('',#211,#209,#125,.T.);
#237=EDGE_CURVE('',#211,#213,#303,.T.);
#238=EDGE_CURVE('',#214,#213,#126,.T.);
#239=EDGE_CURVE('',#209,#214,#304,.T.);
#240=EDGE_CURVE('',#213,#214,#127,.T.);
#241=EDGE_CURVE('',#215,#216,#128,.T.);
#242=EDGE_CURVE('',#216,#213,#305,.T.);
#243=EDGE_CURVE('',#215,#214,#306,.T.);
#244=EDGE_CURVE('',#216,#215,#129,.T.);
#245=EDGE_CURVE('',#216,#217,#307,.T.);
#246=EDGE_CURVE('',#218,#217,#130,.T.);
#247=EDGE_CURVE('',#215,#218,#308,.T.);
#248=EDGE_CURVE('',#217,#218,#131,.T.);
#249=EDGE_CURVE('',#219,#220,#132,.T.);
#250=EDGE_CURVE('',#220,#217,#309,.T.);
#251=EDGE_CURVE('',#219,#218,#310,.T.);
#252=EDGE_CURVE('',#220,#219,#133,.T.);
#253=EDGE_CURVE('',#220,#221,#311,.T.);
#254=EDGE_CURVE('',#221,#222,#134,.T.);
#255=EDGE_CURVE('',#219,#222,#312,.T.);
#256=EDGE_CURVE('',#222,#221,#135,.T.);
#257=COLOUR_RGB('Strong Stone',0.576470588235294,0.54508278019379,0.392156862745098);
#258=COLOUR_RGB('Medium Umber',0.372533760585946,0.313725490196078,0.270572976272221);
#259=COLOUR_RGB('Light Gray',0.8,0.8,0.8);
#260=COLOUR_RGB('non-cutting part and shank',0.501960784313725,0.501960784313725,
0.501960784313725);
#261=CURVE_STYLE('',#275,POSITIVE_LENGTH_MEASURE(0.18),#371);
#262=CURVE_STYLE('',#276,POSITIVE_LENGTH_MEASURE(0.18),#371);
#263=CURVE_STYLE('',#277,POSITIVE_LENGTH_MEASURE(0.18),#371);
#264=CURVE_STYLE('',#278,POSITIVE_LENGTH_MEASURE(0.18),#371);
#265=CURVE_STYLE('',#279,POSITIVE_LENGTH_MEASURE(0.13),#257);
#266=CURVE_STYLE('',#280,POSITIVE_LENGTH_MEASURE(0.13),#257);
#267=CURVE_STYLE('',#281,POSITIVE_LENGTH_MEASURE(0.13),#258);
#268=CURVE_STYLE('',#282,POSITIVE_LENGTH_MEASURE(0.13),#258);
#269=CURVE_STYLE('',#283,POSITIVE_LENGTH_MEASURE(0.13),#257);
#270=CURVE_STYLE('',#284,POSITIVE_LENGTH_MEASURE(0.13),#257);
#271=CURVE_STYLE('',#285,POSITIVE_LENGTH_MEASURE(0.13),#258);
#272=CURVE_STYLE('',#286,POSITIVE_LENGTH_MEASURE(0.13),#257);
#273=CURVE_STYLE('',#287,POSITIVE_LENGTH_MEASURE(0.13),#257);
#274=CURVE_STYLE('',#288,POSITIVE_LENGTH_MEASURE(0.13),#257);
#275=DRAUGHTING_PRE_DEFINED_CURVE_FONT('continuous');
#276=DRAUGHTING_PRE_DEFINED_CURVE_FONT('continuous');
#277=DRAUGHTING_PRE_DEFINED_CURVE_FONT('continuous');
#278=DRAUGHTING_PRE_DEFINED_CURVE_FONT('continuous');
#279=DRAUGHTING_PRE_DEFINED_CURVE_FONT('continuous');
#280=DRAUGHTING_PRE_DEFINED_CURVE_FONT('continuous');
#281=DRAUGHTING_PRE_DEFINED_CURVE_FONT('continuous');
#282=DRAUGHTING_PRE_DEFINED_CURVE_FONT('continuous');
#283=DRAUGHTING_PRE_DEFINED_CURVE_FONT('continuous');
#284=DRAUGHTING_PRE_DEFINED_CURVE_FONT('continuous');
#285=DRAUGHTING_PRE_DEFINED_CURVE_FONT('continuous');
#286=DRAUGHTING_PRE_DEFINED_CURVE_FONT('continuous');
#287=DRAUGHTING_PRE_DEFINED_CURVE_FONT('continuous');
#288=DRAUGHTING_PRE_DEFINED_CURVE_FONT('continuous');
#289=TRIMMED_CURVE('',#293,(PARAMETER_VALUE(0.)),(PARAMETER_VALUE(1.)),
 .T.,.PARAMETER.);
#290=TRIMMED_CURVE('',#294,(PARAMETER_VALUE(0.)),(PARAMETER_VALUE(1.)),
 .T.,.PARAMETER.);
#291=TRIMMED_CURVE('',#295,(PARAMETER_VALUE(0.)),(PARAMETER_VALUE(1.)),
 .T.,.PARAMETER.);
#292=TRIMMED_CURVE('',#296,(PARAMETER_VALUE(0.)),(PARAMETER_VALUE(1.)),
 .T.,.PARAMETER.);
#293=LINE('',#538,#313);
#294=LINE('',#539,#314);
#295=LINE('',#540,#315);
#296=LINE('',#541,#316);
#297=LINE('',#552,#317);
#298=LINE('',#557,#318);
#299=LINE('',#565,#319);
#300=LINE('',#567,#320);
#301=LINE('',#570,#321);
#302=LINE('',#575,#322);
#303=LINE('',#583,#323);
#304=LINE('',#587,#324);
#305=LINE('',#594,#325);
#306=LINE('',#595,#326);
#307=LINE('',#599,#327);
#308=LINE('',#603,#328);
#309=LINE('',#610,#329);
#310=LINE('',#611,#330);
#311=LINE('',#615,#331);
#312=LINE('',#619,#332);
#313=VECTOR('',#422,0.143439129465107);
#314=VECTOR('',#423,0.78);
#315=VECTOR('',#424,0.13);
#316=VECTOR('',#425,0.8406199955602);
#317=VECTOR('',#446,1.);
#318=VECTOR('',#449,1.);
#319=VECTOR('',#462,1.);
#320=VECTOR('',#463,1.);
#321=VECTOR('',#468,1.);
#322=VECTOR('',#471,1.);
#323=VECTOR('',#484,1.);
#324=VECTOR('',#487,1.);
#325=VECTOR('',#496,1.);
#326=VECTOR('',#497,1.);
#327=VECTOR('',#504,1.);
#328=VECTOR('',#507,1.);
#329=VECTOR('',#516,1.);
#330=VECTOR('',#517,1.);
#331=VECTOR('',#524,1.);
#332=VECTOR('',#527,1.);
#333=PRESENTATION_LAYER_ASSIGNMENT('1','Layer 1',(#537,#289,#290,#291,#292,
#373,#374,#377,#378,#379,#380,#381,#382,#38,#39));
#334=PRESENTATION_LAYER_ASSIGNMENT('2','Layer 2',(#375,#376));
#335=STYLED_ITEM('',(#352),#537);
#336=STYLED_ITEM('',(#353),#289);
#337=STYLED_ITEM('',(#354),#290);
#338=STYLED_ITEM('',(#355),#291);
#339=STYLED_ITEM('',(#356),#292);
#340=STYLED_ITEM('',(#357),#373);
#341=STYLED_ITEM('',(#358),#374);
#342=STYLED_ITEM('',(#359),#375);
#343=STYLED_ITEM('',(#360),#376);
#344=STYLED_ITEM('',(#361),#377);
#345=STYLED_ITEM('',(#362),#378);
#346=STYLED_ITEM('',(#363),#379);
#347=STYLED_ITEM('',(#364),#380);
#348=STYLED_ITEM('',(#365),#381);
#349=STYLED_ITEM('',(#366),#382);
#350=STYLED_ITEM('',(#367),#38);
#351=STYLED_ITEM('',(#368),#39);
#352=PRESENTATION_STYLE_ASSIGNMENT((#369));
#353=PRESENTATION_STYLE_ASSIGNMENT((#261));
#354=PRESENTATION_STYLE_ASSIGNMENT((#262));
#355=PRESENTATION_STYLE_ASSIGNMENT((#263));
#356=PRESENTATION_STYLE_ASSIGNMENT((#264));
#357=PRESENTATION_STYLE_ASSIGNMENT((#265));
#358=PRESENTATION_STYLE_ASSIGNMENT((#266));
#359=PRESENTATION_STYLE_ASSIGNMENT((#267));
#360=PRESENTATION_STYLE_ASSIGNMENT((#268));
#361=PRESENTATION_STYLE_ASSIGNMENT((#269));
#362=PRESENTATION_STYLE_ASSIGNMENT((#270));
#363=PRESENTATION_STYLE_ASSIGNMENT((#271));
#364=PRESENTATION_STYLE_ASSIGNMENT((#272));
#365=PRESENTATION_STYLE_ASSIGNMENT((#273));
#366=PRESENTATION_STYLE_ASSIGNMENT((#274));
#367=PRESENTATION_STYLE_ASSIGNMENT((#28));
#368=PRESENTATION_STYLE_ASSIGNMENT((#29));
#369=POINT_STYLE('',#370,POSITIVE_LENGTH_MEASURE(3.),#371);
#370=PRE_DEFINED_POINT_MARKER_SYMBOL('plus');
#371=DRAUGHTING_PRE_DEFINED_COLOUR('blue');
#372=AXIS2_PLACEMENT_3D('',#536,#420,#421);
#373=AXIS2_PLACEMENT_3D('',#542,#426,#427);
#374=AXIS2_PLACEMENT_3D('',#543,#428,#429);
#375=AXIS2_PLACEMENT_3D('CIP',#544,#430,#431);
#376=AXIS2_PLACEMENT_3D('PCS',#545,#432,#433);
#377=AXIS2_PLACEMENT_3D('MCS',#546,#434,#435);
#378=AXIS2_PLACEMENT_3D('',#547,#436,#437);
#379=AXIS2_PLACEMENT_3D('STEP_TEMP_5_1',#548,#438,#439);
#380=AXIS2_PLACEMENT_3D('',#549,#440,#441);
#381=AXIS2_PLACEMENT_3D('',#550,#442,#443);
#382=AXIS2_PLACEMENT_3D('',#551,#444,#445);
#383=AXIS2_PLACEMENT_3D('',#555,#447,#448);
#384=AXIS2_PLACEMENT_3D('',#559,#450,#451);
#385=AXIS2_PLACEMENT_3D('',#560,#452,#453);
#386=AXIS2_PLACEMENT_3D('',#561,#454,#455);
#387=AXIS2_PLACEMENT_3D('',#562,#456,#457);
#388=AXIS2_PLACEMENT_3D('',#563,#458,#459);
#389=AXIS2_PLACEMENT_3D('',#564,#460,#461);
#390=AXIS2_PLACEMENT_3D('',#568,#464,#465);
#391=AXIS2_PLACEMENT_3D('',#569,#466,#467);
#392=AXIS2_PLACEMENT_3D('',#573,#469,#470);
#393=AXIS2_PLACEMENT_3D('',#577,#472,#473);
#394=AXIS2_PLACEMENT_3D('',#578,#474,#475);
#395=AXIS2_PLACEMENT_3D('',#579,#476,#477);
#396=AXIS2_PLACEMENT_3D('',#580,#478,#479);
#397=AXIS2_PLACEMENT_3D('',#581,#480,#481);
#398=AXIS2_PLACEMENT_3D('',#582,#482,#483);
#399=AXIS2_PLACEMENT_3D('',#585,#485,#486);
#400=AXIS2_PLACEMENT_3D('',#588,#488,#489);
#401=AXIS2_PLACEMENT_3D('',#589,#490,#491);
#402=AXIS2_PLACEMENT_3D('',#590,#492,#493);
#403=AXIS2_PLACEMENT_3D('',#591,#494,#495);
#404=AXIS2_PLACEMENT_3D('',#596,#498,#499);
#405=AXIS2_PLACEMENT_3D('',#597,#500,#501);
#406=AXIS2_PLACEMENT_3D('',#598,#502,#503);
#407=AXIS2_PLACEMENT_3D('',#601,#505,#506);
#408=AXIS2_PLACEMENT_3D('',#604,#508,#509);
#409=AXIS2_PLACEMENT_3D('',#605,#510,#511);
#410=AXIS2_PLACEMENT_3D('',#606,#512,#513);
#411=AXIS2_PLACEMENT_3D('',#607,#514,#515);
#412=AXIS2_PLACEMENT_3D('',#612,#518,#519);
#413=AXIS2_PLACEMENT_3D('',#613,#520,#521);
#414=AXIS2_PLACEMENT_3D('',#614,#522,#523);
#415=AXIS2_PLACEMENT_3D('',#617,#525,#526);
#416=AXIS2_PLACEMENT_3D('',#620,#528,#529);
#417=AXIS2_PLACEMENT_3D('',#621,#530,#531);
#418=AXIS2_PLACEMENT_3D('',#622,#532,#533);
#419=AXIS2_PLACEMENT_3D('',#623,#534,#535);
#420=DIRECTION('',(0.,0.,1.));
#421=DIRECTION('',(1.,0.,0.));
#422=DIRECTION('',(-0.906307787036659,0.,0.422618261740681));
#423=DIRECTION('',(0.,0.,1.));
#424=DIRECTION('',(1.,0.,0.));
#425=DIRECTION('',(0.,0.,-1.));
#426=DIRECTION('',(0.,0.,1.));
#427=DIRECTION('',(1.,0.,0.));
#428=DIRECTION('',(0.,0.,1.));
#429=DIRECTION('',(1.,0.,0.));
#430=DIRECTION('',(0.,0.,1.));
#431=DIRECTION('',(1.,0.,0.));
#432=DIRECTION('',(0.,0.,1.));
#433=DIRECTION('',(1.,0.,0.));
#434=DIRECTION('',(0.,0.,1.));
#435=DIRECTION('',(1.,0.,0.));
#436=DIRECTION('',(0.,0.,1.));
#437=DIRECTION('',(1.,0.,0.));
#438=DIRECTION('',(0.,0.,1.));
#439=DIRECTION('',(1.,0.,0.));
#440=DIRECTION('',(0.,0.,1.));
#441=DIRECTION('',(1.,0.,0.));
#442=DIRECTION('',(0.,0.,1.));
#443=DIRECTION('',(1.,0.,0.));
#444=DIRECTION('',(0.,0.,1.));
#445=DIRECTION('',(1.,0.,0.));
#446=DIRECTION('',(0.,0.,-1.));
#447=DIRECTION('',(0.,0.,1.));
#448=DIRECTION('',(0.,-1.,0.));
#449=DIRECTION('',(0.,0.,-1.));
#450=DIRECTION('',(0.,0.,-1.));
#451=DIRECTION('',(0.,1.,0.));
#452=DIRECTION('',(0.,0.,-1.));
#453=DIRECTION('',(0.,1.,0.));
#454=DIRECTION('',(0.,0.,-1.));
#455=DIRECTION('',(0.,-1.,0.));
#456=DIRECTION('',(0.,0.,-1.));
#457=DIRECTION('',(1.,0.,0.));
#458=DIRECTION('',(0.,0.,1.));
#459=DIRECTION('',(0.,1.,0.));
#460=DIRECTION('',(0.,0.,-1.));
#461=DIRECTION('',(0.,1.,0.));
#462=DIRECTION('',(0.,-0.906307787036602,0.422618261740801));
#463=DIRECTION('',(0.,0.906307787036602,0.422618261740801));
#464=DIRECTION('',(0.,0.,1.));
#465=DIRECTION('',(0.,-1.,-1.25314729725567E-17));
#466=DIRECTION('',(0.,0.,1.));
#467=DIRECTION('',(0.,-1.,-1.25314729725567E-17));
#468=DIRECTION('',(0.,-1.315522530451E-14,-1.));
#469=DIRECTION('',(0.,0.,-1.));
#470=DIRECTION('',(0.,1.,0.));
#471=DIRECTION('',(0.,1.315522530451E-14,-1.));
#472=DIRECTION('',(0.,0.,1.));
#473=DIRECTION('',(0.,-1.,0.));
#474=DIRECTION('',(0.,0.,-1.));
#475=DIRECTION('',(0.,1.,0.));
#476=DIRECTION('',(0.,0.,1.));
#477=DIRECTION('',(0.,1.,0.));
#478=DIRECTION('',(0.,0.,1.));
#479=DIRECTION('',(-1.,0.,0.));
#480=DIRECTION('',(0.,0.,-1.));
#481=DIRECTION('',(0.,-1.,0.));
#482=DIRECTION('',(0.,0.,-1.));
#483=DIRECTION('',(0.,1.,0.));
#484=DIRECTION('',(0.,-0.258819045102493,0.965925826289076));
#485=DIRECTION('',(0.,0.,1.));
#486=DIRECTION('',(0.,1.,0.));
#487=DIRECTION('',(0.,0.258819045102493,0.965925826289076));
#488=DIRECTION('',(0.,0.,1.));
#489=DIRECTION('',(0.,-1.,-2.32793070775553E-16));
#490=DIRECTION('',(0.,0.,1.));
#491=DIRECTION('',(0.,-1.,0.));
#492=DIRECTION('',(0.,0.,1.));
#493=DIRECTION('',(0.,-1.,-2.32793070775553E-16));
#494=DIRECTION('',(0.,0.,-1.));
#495=DIRECTION('',(0.,1.,0.));
#496=DIRECTION('',(0.,-1.160963382045E-13,-1.));
#497=DIRECTION('',(0.,1.160963382045E-13,-1.));
#498=DIRECTION('',(0.,0.,-1.));
#499=DIRECTION('',(0.,1.,0.));
#500=DIRECTION('',(0.,0.,-1.));
#501=DIRECTION('',(0.,-1.,0.));
#502=DIRECTION('',(0.,0.,-1.));
#503=DIRECTION('',(0.,1.,0.));
#504=DIRECTION('',(0.,-0.258819045102493,0.965925826289076));
#505=DIRECTION('',(0.,0.,1.));
#506=DIRECTION('',(0.,1.,0.));
#507=DIRECTION('',(0.,0.258819045102493,0.965925826289076));
#508=DIRECTION('',(0.,0.,1.));
#509=DIRECTION('',(0.,-1.,-1.67700114537238E-16));
#510=DIRECTION('',(0.,0.,1.));
#511=DIRECTION('',(0.,-1.,0.));
#512=DIRECTION('',(0.,0.,1.));
#513=DIRECTION('',(0.,-1.,-1.67700114537238E-16));
#514=DIRECTION('',(0.,0.,-1.));
#515=DIRECTION('',(0.,1.,0.));
#516=DIRECTION('',(0.,0.,-1.));
#517=DIRECTION('',(0.,0.,-1.));
#518=DIRECTION('',(0.,0.,-1.));
#519=DIRECTION('',(0.,1.,0.));
#520=DIRECTION('',(0.,0.,-1.));
#521=DIRECTION('',(0.,-1.,0.));
#522=DIRECTION('',(0.,0.,-1.));
#523=DIRECTION('',(0.,1.,0.));
#524=DIRECTION('',(0.,0.500000000000092,0.866025403784386));
#525=DIRECTION('',(0.,0.,-1.));
#526=DIRECTION('',(0.,-1.,0.));
#527=DIRECTION('',(0.,-0.500000000000092,0.866025403784386));
#528=DIRECTION('',(0.,0.,-1.));
#529=DIRECTION('',(0.,1.,3.59728819454392E-17));
#530=DIRECTION('',(0.,0.,-1.));
#531=DIRECTION('',(0.,1.,0.));
#532=DIRECTION('',(0.,0.,-1.));
#533=DIRECTION('',(0.,1.,3.59728819454392E-17));
#534=DIRECTION('',(0.,0.,-1.));
#535=DIRECTION('',(0.,1.,0.));
#536=CARTESIAN_POINT('',(0.,0.,0.));
#537=CARTESIAN_POINT('CRP',(-0.13,0.,0.06061999556016));
#538=CARTESIAN_POINT('',(0.,0.,0.));
#539=CARTESIAN_POINT('',(-0.13,0.,0.06061999556015));
#540=CARTESIAN_POINT('',(-0.13,0.,0.8406199955602));
#541=CARTESIAN_POINT('',(0.,0.,0.8406199955602));
#542=CARTESIAN_POINT('',(0.,0.,0.));
#543=CARTESIAN_POINT('',(0.,0.,0.));
#544=CARTESIAN_POINT('',(0.,0.,0.));
#545=CARTESIAN_POINT('',(0.,0.,38.06061999556));
#546=CARTESIAN_POINT('',(0.,0.,11.7926708));
#547=CARTESIAN_POINT('',(0.,0.,0.));
#548=CARTESIAN_POINT('',(0.,0.,0.));
#549=CARTESIAN_POINT('',(0.,0.,0.));
#550=CARTESIAN_POINT('',(0.,0.,0.));
#551=CARTESIAN_POINT('',(0.,0.,0.));
#552=CARTESIAN_POINT('',(0.,-0.13,0.840619996));
#553=CARTESIAN_POINT('',(0.,-0.13,0.840619996));
#554=CARTESIAN_POINT('',(0.,-0.13,0.06061999556015));
#555=CARTESIAN_POINT('',(0.,0.,0.06061999556015));
#556=CARTESIAN_POINT('',(0.,0.13,0.06061999556017));
#557=CARTESIAN_POINT('',(0.,0.13,0.840619996));
#558=CARTESIAN_POINT('',(0.,0.13,0.840619996));
#559=CARTESIAN_POINT('',(0.,0.,0.840619996));
#560=CARTESIAN_POINT('',(0.,0.,39.96365099534));
#561=CARTESIAN_POINT('',(0.,0.,0.840619996));
#562=CARTESIAN_POINT('',(150.,150.,0.840619996));
#563=CARTESIAN_POINT('',(0.,0.,0.06061999556015));
#564=CARTESIAN_POINT('',(0.,0.,39.96365099534));
#565=CARTESIAN_POINT('',(0.,-0.13,0.06061999556017));
#566=CARTESIAN_POINT('',(0.,0.,0.));
#567=CARTESIAN_POINT('',(0.,0.13,0.06061999556017));
#568=CARTESIAN_POINT('',(0.,0.,0.03091619773568));
#569=CARTESIAN_POINT('',(0.,0.,0.03091619773568));
#570=CARTESIAN_POINT('',(0.,0.13,3.26061999556));
#571=CARTESIAN_POINT('',(0.,0.1300000000001,3.26061999556));
#572=CARTESIAN_POINT('',(0.,0.13,0.840619996));
#573=CARTESIAN_POINT('',(0.,0.,3.26061999556));
#574=CARTESIAN_POINT('',(0.,-0.13,3.26061999556));
#575=CARTESIAN_POINT('',(0.,-0.13,3.26061999556));
#576=CARTESIAN_POINT('',(0.,-0.13,0.840619996));
#577=CARTESIAN_POINT('',(0.,0.,0.840619996));
#578=CARTESIAN_POINT('',(0.,0.,39.96365099534));
#579=CARTESIAN_POINT('',(0.,0.,0.840619996));
#580=CARTESIAN_POINT('',(-150.,150.,0.840619996));
#581=CARTESIAN_POINT('',(0.,0.,3.26061999556));
#582=CARTESIAN_POINT('',(0.,0.,39.96365099534));
#583=CARTESIAN_POINT('',(0.,-0.5000000000001,4.641478794361));
#584=CARTESIAN_POINT('',(0.,-0.5000000000002,4.641478794361));
#585=CARTESIAN_POINT('',(0.,0.,4.641478794361));
#586=CARTESIAN_POINT('',(0.,0.5000000000001,4.641478794361));
#587=CARTESIAN_POINT('',(0.,0.5000000000001,4.641478794361));
#588=CARTESIAN_POINT('',(0.,0.,3.95104939496));
#589=CARTESIAN_POINT('',(0.,0.,4.641478794361));
#590=CARTESIAN_POINT('',(0.,0.,3.95104939496));
#591=CARTESIAN_POINT('',(0.,0.,6.06061999556));
#592=CARTESIAN_POINT('',(0.,0.4999999999999,6.06061999556));
#593=CARTESIAN_POINT('',(0.,-0.4999999999999,6.06061999556));
#594=CARTESIAN_POINT('',(0.,-0.4999999999999,6.06061999556));
#595=CARTESIAN_POINT('',(0.,0.4999999999999,6.06061999556));
#596=CARTESIAN_POINT('',(0.,0.,39.96365099534));
#597=CARTESIAN_POINT('',(0.,0.,6.06061999556));
#598=CARTESIAN_POINT('',(0.,0.,39.96365099534));
#599=CARTESIAN_POINT('',(0.,-1.5,9.792670803129));
#600=CARTESIAN_POINT('',(0.,-1.5,9.792670803129));
#601=CARTESIAN_POINT('',(0.,0.,9.792670803129));
#602=CARTESIAN_POINT('',(0.,1.5,9.792670803129));
#603=CARTESIAN_POINT('',(0.,1.5,9.792670803129));
#604=CARTESIAN_POINT('',(0.,0.,7.926645399345));
#605=CARTESIAN_POINT('',(0.,0.,9.792670803129));
#606=CARTESIAN_POINT('',(0.,0.,7.926645399345));
#607=CARTESIAN_POINT('',(0.,0.,37.46061999556));
#608=CARTESIAN_POINT('',(0.,1.5,37.46061999556));
#609=CARTESIAN_POINT('',(0.,-1.5,37.46061999556));
#610=CARTESIAN_POINT('',(0.,-1.5,37.46061999556));
#611=CARTESIAN_POINT('',(0.,1.5,37.46061999556));
#612=CARTESIAN_POINT('',(0.,0.,39.96365099534));
#613=CARTESIAN_POINT('',(0.,0.,37.46061999556));
#614=CARTESIAN_POINT('',(0.,0.,39.96365099534));
#615=CARTESIAN_POINT('',(0.,-1.153589838486,38.06061999556));
#616=CARTESIAN_POINT('',(0.,-1.153589838486,38.06061999556));
#617=CARTESIAN_POINT('',(0.,0.,38.06061999556));
#618=CARTESIAN_POINT('',(0.,1.153589838486,38.06061999556));
#619=CARTESIAN_POINT('',(0.,1.153589838486,38.06061999556));
#620=CARTESIAN_POINT('',(0.,0.,37.76061999556));
#621=CARTESIAN_POINT('',(0.,0.,38.06061999556));
#622=CARTESIAN_POINT('',(0.,0.,37.76061999556));
#623=CARTESIAN_POINT('',(0.,0.,38.06061999556));
#624=MECHANICAL_DESIGN_GEOMETRIC_PRESENTATION_REPRESENTATION('',(#335,#336,
#337,#338,#339,#340,#341,#342,#343,#344,#345,#346,#347,#348,#349,#350,#351),
#625);
#625=(
GEOMETRIC_REPRESENTATION_CONTEXT(3)
GLOBAL_UNCERTAINTY_ASSIGNED_CONTEXT((#626))
GLOBAL_UNIT_ASSIGNED_CONTEXT((#632,#628,#627))
REPRESENTATION_CONTEXT('MSE0026SB','TOP_LEVEL_ASSEMBLY_PART')
);
#626=UNCERTAINTY_MEASURE_WITH_UNIT(LENGTH_MEASURE(2.E-5),#632,
'DISTANCE_ACCURACY_VALUE','Maximum Tolerance applied to model');
#627=(
NAMED_UNIT(*)
SI_UNIT($,.STERADIAN.)
SOLID_ANGLE_UNIT()
);
#628=(
CONVERSION_BASED_UNIT('DEGREE',#630)
NAMED_UNIT(#629)
PLANE_ANGLE_UNIT()
);
#629=DIMENSIONAL_EXPONENTS(0.,0.,0.,0.,0.,0.,0.);
#630=PLANE_ANGLE_MEASURE_WITH_UNIT(PLANE_ANGLE_MEASURE(0.0174532925),#631);
#631=(
NAMED_UNIT(*)
PLANE_ANGLE_UNIT()
SI_UNIT($,.RADIAN.)
);
#632=(
LENGTH_UNIT()
NAMED_UNIT(*)
SI_UNIT(.MILLI.,.METRE.)
);
ENDSEC;
END-ISO-10303-21;
