ISO-10303-21;
HEADER;
/* Generated by software containing ST-Developer
 * from STEP Tools, Inc. (www.steptools.com) 
 */
/* OPTION: using custom schema-name function */

FILE_DESCRIPTION(
/* description */ (''),
/* implementation_level */ '2;1');

FILE_NAME(
/* name */ 'MS2XLD0050N080.stp',
/* time_stamp */ '2023-03-17T09:19:18+09:00',
/* author */ (''),
/* organization */ (''),
/* preprocessor_version */ 'ST-DEVELOPER v16',
/* originating_system */ 'SIEMENS PLM Software NX 10.0',
/* authorisation */ '');

FILE_SCHEMA (('AUTOMOTIVE_DESIGN { 1 0 10303 214 3 1 1 1 }'));
ENDSEC;

DATA;
#10=CONSTRUCTIVE_GEOMETRY_REPRESENTATION_RELATIONSHIP(
'supplemental geometry','',#26,#11);
#11=CONSTRUCTIVE_GEOMETRY_REPRESENTATION('supplemental geometry',(#356,
#357,#358,#359,#360,#361,#362,#363,#364,#365),#603);
#12=GEOMETRICALLY_BOUNDED_WIREFRAME_SHAPE_REPRESENTATION(
'MS2XLD0050N080-None',(#27),#603);
#13=SHAPE_REPRESENTATION_RELATIONSHIP('None',
'relationship between MS2XLD0050N080-None and MS2XLD0050N080-None',#26,
#15);
#14=SHAPE_REPRESENTATION_RELATIONSHIP('None',
'relationship between MS2XLD0050N080-None and MS2XLD0050N080-None',#26,
#12);
#15=ADVANCED_BREP_SHAPE_REPRESENTATION('MS2XLD0050N080-None',(#46,#47),
#603);
#16=SHAPE_DEFINITION_REPRESENTATION(#17,#26);
#17=PRODUCT_DEFINITION_SHAPE('','SHAPE FOR MS2XLD0050N080_ASM.',#18);
#18=PRODUCT_DEFINITION('part definition','',#20,#19);
#19=PRODUCT_DEFINITION_CONTEXT('part definition',#25,'design');
#20=PRODUCT_DEFINITION_FORMATION_WITH_SPECIFIED_SOURCE(' ',' ',#22,
 .NOT_KNOWN.);
#21=PRODUCT_RELATED_PRODUCT_CATEGORY('part','',(#22));
#22=PRODUCT('MS2XLD0050N080_ASM','MS2XLD0050N080_ASM','NOT SPECIFIED',(#23));
#23=PRODUCT_CONTEXT('',#25,'mechanical');
#24=APPLICATION_PROTOCOL_DEFINITION('international standard',
'automotive_design',2010,#25);
#25=APPLICATION_CONTEXT(
'core data for automotive mechanical design processes');
#26=SHAPE_REPRESENTATION('MS2XLD0050N080-None',(#355),#603);
#27=GEOMETRIC_CURVE_SET('None',(#519,#276,#277,#278,#279));
#28=TOROIDAL_SURFACE('',#388,2.23,2.);
#29=TOROIDAL_SURFACE('',#390,2.23,2.);
#30=CONICAL_SURFACE('',#376,0.24,45.00000000001);
#31=CONICAL_SURFACE('',#380,0.24,45.00000000001);
#32=CONICAL_SURFACE('',#392,1.136852399265,12.);
#33=CONICAL_SURFACE('',#394,1.136852399265,12.);
#34=CONICAL_SURFACE('',#400,1.75,45.);
#35=CONICAL_SURFACE('',#402,1.75,45.);
#36=SURFACE_STYLE_USAGE(.BOTH.,#38);
#37=SURFACE_STYLE_USAGE(.BOTH.,#39);
#38=SURFACE_SIDE_STYLE('',(#40));
#39=SURFACE_SIDE_STYLE('',(#41));
#40=SURFACE_STYLE_FILL_AREA(#42);
#41=SURFACE_STYLE_FILL_AREA(#43);
#42=FILL_AREA_STYLE('',(#44));
#43=FILL_AREA_STYLE('',(#45));
#44=FILL_AREA_STYLE_COLOUR('',#353);
#45=FILL_AREA_STYLE_COLOUR('',#354);
#46=MANIFOLD_SOLID_BREP('CUT',#48);
#47=MANIFOLD_SOLID_BREP('NOCUT',#49);
#48=CLOSED_SHELL('',(#54,#55,#56,#57));
#49=CLOSED_SHELL('',(#58,#59,#60,#61,#62,#63,#64,#65,#66,#67,#68,#69,#70,
#71));
#50=PLANE('',#370);
#51=PLANE('',#373);
#52=PLANE('',#378);
#53=PLANE('',#403);
#54=ADVANCED_FACE('',(#78),#72,.T.);
#55=ADVANCED_FACE('',(#79),#50,.F.);
#56=ADVANCED_FACE('',(#80),#73,.T.);
#57=ADVANCED_FACE('',(#81),#51,.T.);
#58=ADVANCED_FACE('',(#82),#30,.T.);
#59=ADVANCED_FACE('',(#83),#52,.F.);
#60=ADVANCED_FACE('',(#84),#31,.T.);
#61=ADVANCED_FACE('',(#85),#74,.T.);
#62=ADVANCED_FACE('',(#86),#75,.T.);
#63=ADVANCED_FACE('',(#87),#28,.F.);
#64=ADVANCED_FACE('',(#88),#29,.F.);
#65=ADVANCED_FACE('',(#89),#32,.T.);
#66=ADVANCED_FACE('',(#90),#33,.T.);
#67=ADVANCED_FACE('',(#91),#76,.T.);
#68=ADVANCED_FACE('',(#92),#77,.T.);
#69=ADVANCED_FACE('',(#93),#34,.T.);
#70=ADVANCED_FACE('',(#94),#35,.T.);
#71=ADVANCED_FACE('',(#95),#53,.F.);
#72=CYLINDRICAL_SURFACE('',#368,0.25);
#73=CYLINDRICAL_SURFACE('',#372,0.25);
#74=CYLINDRICAL_SURFACE('',#382,0.23);
#75=CYLINDRICAL_SURFACE('',#384,0.23);
#76=CYLINDRICAL_SURFACE('',#396,2.);
#77=CYLINDRICAL_SURFACE('',#398,2.);
#78=FACE_OUTER_BOUND('',#96,.T.);
#79=FACE_OUTER_BOUND('',#97,.T.);
#80=FACE_OUTER_BOUND('',#98,.T.);
#81=FACE_OUTER_BOUND('',#99,.T.);
#82=FACE_OUTER_BOUND('',#100,.T.);
#83=FACE_OUTER_BOUND('',#101,.T.);
#84=FACE_OUTER_BOUND('',#102,.T.);
#85=FACE_OUTER_BOUND('',#103,.T.);
#86=FACE_OUTER_BOUND('',#104,.T.);
#87=FACE_OUTER_BOUND('',#105,.T.);
#88=FACE_OUTER_BOUND('',#106,.T.);
#89=FACE_OUTER_BOUND('',#107,.T.);
#90=FACE_OUTER_BOUND('',#108,.T.);
#91=FACE_OUTER_BOUND('',#109,.T.);
#92=FACE_OUTER_BOUND('',#110,.T.);
#93=FACE_OUTER_BOUND('',#111,.T.);
#94=FACE_OUTER_BOUND('',#112,.T.);
#95=FACE_OUTER_BOUND('',#113,.T.);
#96=EDGE_LOOP('',(#134,#135,#136,#137));
#97=EDGE_LOOP('',(#138,#139));
#98=EDGE_LOOP('',(#140,#141,#142,#143));
#99=EDGE_LOOP('',(#144,#145));
#100=EDGE_LOOP('',(#146,#147,#148,#149));
#101=EDGE_LOOP('',(#150,#151));
#102=EDGE_LOOP('',(#152,#153,#154,#155));
#103=EDGE_LOOP('',(#156,#157,#158,#159));
#104=EDGE_LOOP('',(#160,#161,#162,#163));
#105=EDGE_LOOP('',(#164,#165,#166,#167));
#106=EDGE_LOOP('',(#168,#169,#170,#171));
#107=EDGE_LOOP('',(#172,#173,#174,#175));
#108=EDGE_LOOP('',(#176,#177,#178,#179));
#109=EDGE_LOOP('',(#180,#181,#182,#183));
#110=EDGE_LOOP('',(#184,#185,#186,#187));
#111=EDGE_LOOP('',(#188,#189,#190,#191));
#112=EDGE_LOOP('',(#192,#193,#194,#195));
#113=EDGE_LOOP('',(#196,#197));
#114=CIRCLE('',#366,0.25);
#115=CIRCLE('',#367,0.25);
#116=CIRCLE('',#369,0.25);
#117=CIRCLE('',#371,0.25);
#118=CIRCLE('',#374,0.23);
#119=CIRCLE('',#375,0.25);
#120=CIRCLE('',#377,0.25);
#121=CIRCLE('',#379,0.23);
#122=CIRCLE('',#381,0.23);
#123=CIRCLE('',#383,0.23);
#124=CIRCLE('',#385,0.2737047985323);
#125=CIRCLE('',#386,2.);
#126=CIRCLE('',#387,2.);
#127=CIRCLE('',#389,0.2737047985323);
#128=CIRCLE('',#391,1.999999999999);
#129=CIRCLE('',#393,1.999999999999);
#130=CIRCLE('',#395,2.);
#131=CIRCLE('',#397,2.);
#132=CIRCLE('',#399,1.5);
#133=CIRCLE('',#401,1.5);
#134=ORIENTED_EDGE('',*,*,#216,.T.);
#135=ORIENTED_EDGE('',*,*,#217,.T.);
#136=ORIENTED_EDGE('',*,*,#218,.F.);
#137=ORIENTED_EDGE('',*,*,#219,.T.);
#138=ORIENTED_EDGE('',*,*,#220,.F.);
#139=ORIENTED_EDGE('',*,*,#219,.F.);
#140=ORIENTED_EDGE('',*,*,#218,.T.);
#141=ORIENTED_EDGE('',*,*,#221,.T.);
#142=ORIENTED_EDGE('',*,*,#216,.F.);
#143=ORIENTED_EDGE('',*,*,#220,.T.);
#144=ORIENTED_EDGE('',*,*,#217,.F.);
#145=ORIENTED_EDGE('',*,*,#221,.F.);
#146=ORIENTED_EDGE('',*,*,#222,.F.);
#147=ORIENTED_EDGE('',*,*,#223,.F.);
#148=ORIENTED_EDGE('',*,*,#224,.T.);
#149=ORIENTED_EDGE('',*,*,#225,.T.);
#150=ORIENTED_EDGE('',*,*,#226,.F.);
#151=ORIENTED_EDGE('',*,*,#225,.F.);
#152=ORIENTED_EDGE('',*,*,#224,.F.);
#153=ORIENTED_EDGE('',*,*,#227,.F.);
#154=ORIENTED_EDGE('',*,*,#222,.T.);
#155=ORIENTED_EDGE('',*,*,#226,.T.);
#156=ORIENTED_EDGE('',*,*,#227,.T.);
#157=ORIENTED_EDGE('',*,*,#228,.T.);
#158=ORIENTED_EDGE('',*,*,#229,.T.);
#159=ORIENTED_EDGE('',*,*,#230,.F.);
#160=ORIENTED_EDGE('',*,*,#231,.T.);
#161=ORIENTED_EDGE('',*,*,#228,.F.);
#162=ORIENTED_EDGE('',*,*,#223,.T.);
#163=ORIENTED_EDGE('',*,*,#230,.T.);
#164=ORIENTED_EDGE('',*,*,#232,.F.);
#165=ORIENTED_EDGE('',*,*,#233,.T.);
#166=ORIENTED_EDGE('',*,*,#231,.F.);
#167=ORIENTED_EDGE('',*,*,#234,.F.);
#168=ORIENTED_EDGE('',*,*,#229,.F.);
#169=ORIENTED_EDGE('',*,*,#233,.F.);
#170=ORIENTED_EDGE('',*,*,#235,.F.);
#171=ORIENTED_EDGE('',*,*,#234,.T.);
#172=ORIENTED_EDGE('',*,*,#235,.T.);
#173=ORIENTED_EDGE('',*,*,#236,.T.);
#174=ORIENTED_EDGE('',*,*,#237,.F.);
#175=ORIENTED_EDGE('',*,*,#238,.F.);
#176=ORIENTED_EDGE('',*,*,#239,.F.);
#177=ORIENTED_EDGE('',*,*,#236,.F.);
#178=ORIENTED_EDGE('',*,*,#232,.T.);
#179=ORIENTED_EDGE('',*,*,#238,.T.);
#180=ORIENTED_EDGE('',*,*,#240,.T.);
#181=ORIENTED_EDGE('',*,*,#241,.T.);
#182=ORIENTED_EDGE('',*,*,#239,.T.);
#183=ORIENTED_EDGE('',*,*,#242,.F.);
#184=ORIENTED_EDGE('',*,*,#237,.T.);
#185=ORIENTED_EDGE('',*,*,#241,.F.);
#186=ORIENTED_EDGE('',*,*,#243,.T.);
#187=ORIENTED_EDGE('',*,*,#242,.T.);
#188=ORIENTED_EDGE('',*,*,#243,.F.);
#189=ORIENTED_EDGE('',*,*,#244,.T.);
#190=ORIENTED_EDGE('',*,*,#245,.T.);
#191=ORIENTED_EDGE('',*,*,#246,.F.);
#192=ORIENTED_EDGE('',*,*,#247,.T.);
#193=ORIENTED_EDGE('',*,*,#244,.F.);
#194=ORIENTED_EDGE('',*,*,#240,.F.);
#195=ORIENTED_EDGE('',*,*,#246,.T.);
#196=ORIENTED_EDGE('',*,*,#247,.F.);
#197=ORIENTED_EDGE('',*,*,#245,.F.);
#198=VERTEX_POINT('',#535);
#199=VERTEX_POINT('',#536);
#200=VERTEX_POINT('',#538);
#201=VERTEX_POINT('',#540);
#202=VERTEX_POINT('',#549);
#203=VERTEX_POINT('',#550);
#204=VERTEX_POINT('',#552);
#205=VERTEX_POINT('',#554);
#206=VERTEX_POINT('',#562);
#207=VERTEX_POINT('',#564);
#208=VERTEX_POINT('',#570);
#209=VERTEX_POINT('',#571);
#210=VERTEX_POINT('',#578);
#211=VERTEX_POINT('',#580);
#212=VERTEX_POINT('',#586);
#213=VERTEX_POINT('',#587);
#214=VERTEX_POINT('',#594);
#215=VERTEX_POINT('',#596);
#216=EDGE_CURVE('',#198,#199,#284,.T.);
#217=EDGE_CURVE('',#199,#200,#114,.T.);
#218=EDGE_CURVE('',#201,#200,#285,.T.);
#219=EDGE_CURVE('',#201,#198,#115,.T.);
#220=EDGE_CURVE('',#198,#201,#116,.T.);
#221=EDGE_CURVE('',#200,#199,#117,.T.);
#222=EDGE_CURVE('',#202,#203,#286,.T.);
#223=EDGE_CURVE('',#204,#202,#118,.T.);
#224=EDGE_CURVE('',#204,#205,#287,.T.);
#225=EDGE_CURVE('',#205,#203,#119,.T.);
#226=EDGE_CURVE('',#203,#205,#120,.T.);
#227=EDGE_CURVE('',#202,#204,#121,.T.);
#228=EDGE_CURVE('',#204,#206,#288,.T.);
#229=EDGE_CURVE('',#206,#207,#122,.T.);
#230=EDGE_CURVE('',#202,#207,#289,.T.);
#231=EDGE_CURVE('',#207,#206,#123,.T.);
#232=EDGE_CURVE('',#208,#209,#124,.T.);
#233=EDGE_CURVE('',#208,#206,#125,.T.);
#234=EDGE_CURVE('',#209,#207,#126,.T.);
#235=EDGE_CURVE('',#209,#208,#127,.T.);
#236=EDGE_CURVE('',#208,#210,#290,.T.);
#237=EDGE_CURVE('',#211,#210,#128,.T.);
#238=EDGE_CURVE('',#209,#211,#291,.T.);
#239=EDGE_CURVE('',#210,#211,#129,.T.);
#240=EDGE_CURVE('',#212,#213,#130,.T.);
#241=EDGE_CURVE('',#213,#210,#292,.T.);
#242=EDGE_CURVE('',#212,#211,#293,.T.);
#243=EDGE_CURVE('',#213,#212,#131,.T.);
#244=EDGE_CURVE('',#213,#214,#294,.T.);
#245=EDGE_CURVE('',#214,#215,#132,.T.);
#246=EDGE_CURVE('',#212,#215,#295,.T.);
#247=EDGE_CURVE('',#215,#214,#133,.T.);
#248=CURVE_STYLE('',#262,POSITIVE_LENGTH_MEASURE(0.18),#350);
#249=CURVE_STYLE('',#263,POSITIVE_LENGTH_MEASURE(0.18),#350);
#250=CURVE_STYLE('',#264,POSITIVE_LENGTH_MEASURE(0.18),#350);
#251=CURVE_STYLE('',#265,POSITIVE_LENGTH_MEASURE(0.18),#350);
#252=CURVE_STYLE('',#266,POSITIVE_LENGTH_MEASURE(0.13),#351);
#253=CURVE_STYLE('',#267,POSITIVE_LENGTH_MEASURE(0.13),#351);
#254=CURVE_STYLE('',#268,POSITIVE_LENGTH_MEASURE(0.13),#352);
#255=CURVE_STYLE('',#269,POSITIVE_LENGTH_MEASURE(0.13),#352);
#256=CURVE_STYLE('',#270,POSITIVE_LENGTH_MEASURE(0.13),#351);
#257=CURVE_STYLE('',#271,POSITIVE_LENGTH_MEASURE(0.13),#351);
#258=CURVE_STYLE('',#272,POSITIVE_LENGTH_MEASURE(0.13),#352);
#259=CURVE_STYLE('',#273,POSITIVE_LENGTH_MEASURE(0.13),#351);
#260=CURVE_STYLE('',#274,POSITIVE_LENGTH_MEASURE(0.13),#351);
#261=CURVE_STYLE('',#275,POSITIVE_LENGTH_MEASURE(0.13),#351);
#262=DRAUGHTING_PRE_DEFINED_CURVE_FONT('continuous');
#263=DRAUGHTING_PRE_DEFINED_CURVE_FONT('continuous');
#264=DRAUGHTING_PRE_DEFINED_CURVE_FONT('continuous');
#265=DRAUGHTING_PRE_DEFINED_CURVE_FONT('continuous');
#266=DRAUGHTING_PRE_DEFINED_CURVE_FONT('continuous');
#267=DRAUGHTING_PRE_DEFINED_CURVE_FONT('continuous');
#268=DRAUGHTING_PRE_DEFINED_CURVE_FONT('continuous');
#269=DRAUGHTING_PRE_DEFINED_CURVE_FONT('continuous');
#270=DRAUGHTING_PRE_DEFINED_CURVE_FONT('continuous');
#271=DRAUGHTING_PRE_DEFINED_CURVE_FONT('continuous');
#272=DRAUGHTING_PRE_DEFINED_CURVE_FONT('continuous');
#273=DRAUGHTING_PRE_DEFINED_CURVE_FONT('continuous');
#274=DRAUGHTING_PRE_DEFINED_CURVE_FONT('continuous');
#275=DRAUGHTING_PRE_DEFINED_CURVE_FONT('continuous');
#276=TRIMMED_CURVE('',#280,(PARAMETER_VALUE(0.)),(PARAMETER_VALUE(1.)),
 .T.,.PARAMETER.);
#277=TRIMMED_CURVE('',#281,(PARAMETER_VALUE(0.)),(PARAMETER_VALUE(1.)),
 .T.,.PARAMETER.);
#278=TRIMMED_CURVE('',#282,(PARAMETER_VALUE(0.)),(PARAMETER_VALUE(1.)),
 .T.,.PARAMETER.);
#279=TRIMMED_CURVE('',#283,(PARAMETER_VALUE(0.)),(PARAMETER_VALUE(1.)),
 .T.,.PARAMETER.);
#280=LINE('',#520,#296);
#281=LINE('',#521,#297);
#282=LINE('',#522,#298);
#283=LINE('',#523,#299);
#284=LINE('',#534,#300);
#285=LINE('',#539,#301);
#286=LINE('',#548,#302);
#287=LINE('',#553,#303);
#288=LINE('',#561,#304);
#289=LINE('',#565,#305);
#290=LINE('',#577,#306);
#291=LINE('',#581,#307);
#292=LINE('',#588,#308);
#293=LINE('',#589,#309);
#294=LINE('',#593,#310);
#295=LINE('',#597,#311);
#296=VECTOR('',#406,0.25);
#297=VECTOR('',#407,0.7);
#298=VECTOR('',#408,0.25);
#299=VECTOR('',#409,0.7);
#300=VECTOR('',#430,1.);
#301=VECTOR('',#433,1.);
#302=VECTOR('',#448,1.);
#303=VECTOR('',#451,1.);
#304=VECTOR('',#464,1.);
#305=VECTOR('',#467,1.);
#306=VECTOR('',#486,1.);
#307=VECTOR('',#489,1.);
#308=VECTOR('',#498,1.);
#309=VECTOR('',#499,1.);
#310=VECTOR('',#506,1.);
#311=VECTOR('',#509,1.);
#312=PRESENTATION_LAYER_ASSIGNMENT('1','Layer 1',(#519,#276,#277,#278,#279,
#356,#357,#360,#361,#362,#363,#364,#365,#46,#47));
#313=PRESENTATION_LAYER_ASSIGNMENT('2','Layer 2',(#358,#359));
#314=STYLED_ITEM('',(#331),#519);
#315=STYLED_ITEM('',(#332),#276);
#316=STYLED_ITEM('',(#333),#277);
#317=STYLED_ITEM('',(#334),#278);
#318=STYLED_ITEM('',(#335),#279);
#319=STYLED_ITEM('',(#336),#356);
#320=STYLED_ITEM('',(#337),#357);
#321=STYLED_ITEM('',(#338),#358);
#322=STYLED_ITEM('',(#339),#359);
#323=STYLED_ITEM('',(#340),#360);
#324=STYLED_ITEM('',(#341),#361);
#325=STYLED_ITEM('',(#342),#362);
#326=STYLED_ITEM('',(#343),#363);
#327=STYLED_ITEM('',(#344),#364);
#328=STYLED_ITEM('',(#345),#365);
#329=STYLED_ITEM('',(#346),#46);
#330=STYLED_ITEM('',(#347),#47);
#331=PRESENTATION_STYLE_ASSIGNMENT((#348));
#332=PRESENTATION_STYLE_ASSIGNMENT((#248));
#333=PRESENTATION_STYLE_ASSIGNMENT((#249));
#334=PRESENTATION_STYLE_ASSIGNMENT((#250));
#335=PRESENTATION_STYLE_ASSIGNMENT((#251));
#336=PRESENTATION_STYLE_ASSIGNMENT((#252));
#337=PRESENTATION_STYLE_ASSIGNMENT((#253));
#338=PRESENTATION_STYLE_ASSIGNMENT((#254));
#339=PRESENTATION_STYLE_ASSIGNMENT((#255));
#340=PRESENTATION_STYLE_ASSIGNMENT((#256));
#341=PRESENTATION_STYLE_ASSIGNMENT((#257));
#342=PRESENTATION_STYLE_ASSIGNMENT((#258));
#343=PRESENTATION_STYLE_ASSIGNMENT((#259));
#344=PRESENTATION_STYLE_ASSIGNMENT((#260));
#345=PRESENTATION_STYLE_ASSIGNMENT((#261));
#346=PRESENTATION_STYLE_ASSIGNMENT((#36));
#347=PRESENTATION_STYLE_ASSIGNMENT((#37));
#348=POINT_STYLE('',#349,POSITIVE_LENGTH_MEASURE(3.),#350);
#349=PRE_DEFINED_POINT_MARKER_SYMBOL('plus');
#350=COLOUR_RGB('Medium Royal',0.2,0.4,0.8);
#351=COLOUR_RGB('Strong Stone',0.576470588235294,0.54508278019379,0.392156862745098);
#352=COLOUR_RGB('Medium Umber',0.372533760585946,0.313725490196078,0.270572976272221);
#353=COLOUR_RGB('cutting part',0.8,0.8,0.8);
#354=COLOUR_RGB('non-cutting part and shank',0.501960784313725,0.501960784313725,
0.501960784313725);
#355=AXIS2_PLACEMENT_3D('',#518,#404,#405);
#356=AXIS2_PLACEMENT_3D('',#524,#410,#411);
#357=AXIS2_PLACEMENT_3D('',#525,#412,#413);
#358=AXIS2_PLACEMENT_3D('CIP',#526,#414,#415);
#359=AXIS2_PLACEMENT_3D('PCS',#527,#416,#417);
#360=AXIS2_PLACEMENT_3D('MCS',#528,#418,#419);
#361=AXIS2_PLACEMENT_3D('',#529,#420,#421);
#362=AXIS2_PLACEMENT_3D('STEP_TEMP_EM20_1',#530,#422,#423);
#363=AXIS2_PLACEMENT_3D('',#531,#424,#425);
#364=AXIS2_PLACEMENT_3D('',#532,#426,#427);
#365=AXIS2_PLACEMENT_3D('',#533,#428,#429);
#366=AXIS2_PLACEMENT_3D('',#537,#431,#432);
#367=AXIS2_PLACEMENT_3D('',#541,#434,#435);
#368=AXIS2_PLACEMENT_3D('',#542,#436,#437);
#369=AXIS2_PLACEMENT_3D('',#543,#438,#439);
#370=AXIS2_PLACEMENT_3D('',#544,#440,#441);
#371=AXIS2_PLACEMENT_3D('',#545,#442,#443);
#372=AXIS2_PLACEMENT_3D('',#546,#444,#445);
#373=AXIS2_PLACEMENT_3D('',#547,#446,#447);
#374=AXIS2_PLACEMENT_3D('',#551,#449,#450);
#375=AXIS2_PLACEMENT_3D('',#555,#452,#453);
#376=AXIS2_PLACEMENT_3D('',#556,#454,#455);
#377=AXIS2_PLACEMENT_3D('',#557,#456,#457);
#378=AXIS2_PLACEMENT_3D('',#558,#458,#459);
#379=AXIS2_PLACEMENT_3D('',#559,#460,#461);
#380=AXIS2_PLACEMENT_3D('',#560,#462,#463);
#381=AXIS2_PLACEMENT_3D('',#563,#465,#466);
#382=AXIS2_PLACEMENT_3D('',#566,#468,#469);
#383=AXIS2_PLACEMENT_3D('',#567,#470,#471);
#384=AXIS2_PLACEMENT_3D('',#568,#472,#473);
#385=AXIS2_PLACEMENT_3D('',#569,#474,#475);
#386=AXIS2_PLACEMENT_3D('',#572,#476,#477);
#387=AXIS2_PLACEMENT_3D('',#573,#478,#479);
#388=AXIS2_PLACEMENT_3D('',#574,#480,#481);
#389=AXIS2_PLACEMENT_3D('',#575,#482,#483);
#390=AXIS2_PLACEMENT_3D('',#576,#484,#485);
#391=AXIS2_PLACEMENT_3D('',#579,#487,#488);
#392=AXIS2_PLACEMENT_3D('',#582,#490,#491);
#393=AXIS2_PLACEMENT_3D('',#583,#492,#493);
#394=AXIS2_PLACEMENT_3D('',#584,#494,#495);
#395=AXIS2_PLACEMENT_3D('',#585,#496,#497);
#396=AXIS2_PLACEMENT_3D('',#590,#500,#501);
#397=AXIS2_PLACEMENT_3D('',#591,#502,#503);
#398=AXIS2_PLACEMENT_3D('',#592,#504,#505);
#399=AXIS2_PLACEMENT_3D('',#595,#507,#508);
#400=AXIS2_PLACEMENT_3D('',#598,#510,#511);
#401=AXIS2_PLACEMENT_3D('',#599,#512,#513);
#402=AXIS2_PLACEMENT_3D('',#600,#514,#515);
#403=AXIS2_PLACEMENT_3D('',#601,#516,#517);
#404=DIRECTION('',(0.,0.,1.));
#405=DIRECTION('',(1.,0.,0.));
#406=DIRECTION('',(-1.,0.,0.));
#407=DIRECTION('',(0.,0.,1.));
#408=DIRECTION('',(1.,0.,0.));
#409=DIRECTION('',(0.,0.,-1.));
#410=DIRECTION('',(0.,0.,1.));
#411=DIRECTION('',(1.,0.,0.));
#412=DIRECTION('',(0.,0.,1.));
#413=DIRECTION('',(1.,0.,0.));
#414=DIRECTION('',(0.,0.,1.));
#415=DIRECTION('',(1.,0.,0.));
#416=DIRECTION('',(0.,0.,1.));
#417=DIRECTION('',(1.,0.,0.));
#418=DIRECTION('',(0.,0.,1.));
#419=DIRECTION('',(1.,0.,0.));
#420=DIRECTION('',(0.,0.,1.));
#421=DIRECTION('',(1.,0.,0.));
#422=DIRECTION('',(0.,0.,1.));
#423=DIRECTION('',(1.,0.,0.));
#424=DIRECTION('',(0.,0.,1.));
#425=DIRECTION('',(1.,0.,0.));
#426=DIRECTION('',(0.,0.,1.));
#427=DIRECTION('',(1.,0.,0.));
#428=DIRECTION('',(0.,0.,1.));
#429=DIRECTION('',(1.,0.,0.));
#430=DIRECTION('',(0.,0.,-1.));
#431=DIRECTION('',(0.,0.,1.));
#432=DIRECTION('',(0.,-1.,0.));
#433=DIRECTION('',(0.,0.,-1.));
#434=DIRECTION('',(0.,0.,-1.));
#435=DIRECTION('',(0.,1.,0.));
#436=DIRECTION('',(0.,0.,-1.));
#437=DIRECTION('',(0.,1.,0.));
#438=DIRECTION('',(0.,0.,-1.));
#439=DIRECTION('',(0.,-1.,0.));
#440=DIRECTION('',(0.,0.,-1.));
#441=DIRECTION('',(1.,0.,0.));
#442=DIRECTION('',(0.,0.,1.));
#443=DIRECTION('',(0.,1.,0.));
#444=DIRECTION('',(0.,0.,-1.));
#445=DIRECTION('',(0.,1.,0.));
#446=DIRECTION('',(0.,0.,-1.));
#447=DIRECTION('',(0.,1.,0.));
#448=DIRECTION('',(0.,0.707106781186397,-0.707106781186697));
#449=DIRECTION('',(0.,0.,1.));
#450=DIRECTION('',(0.,-1.,0.));
#451=DIRECTION('',(0.,-0.707106781186397,-0.707106781186697));
#452=DIRECTION('',(0.,0.,1.));
#453=DIRECTION('',(0.,-1.,0.));
#454=DIRECTION('',(0.,0.,-1.));
#455=DIRECTION('',(0.,1.,-1.15981796824671E-17));
#456=DIRECTION('',(0.,0.,1.));
#457=DIRECTION('',(0.,1.,0.));
#458=DIRECTION('',(0.,0.,1.));
#459=DIRECTION('',(-1.,0.,0.));
#460=DIRECTION('',(0.,0.,1.));
#461=DIRECTION('',(0.,1.,0.));
#462=DIRECTION('',(0.,0.,-1.));
#463=DIRECTION('',(0.,1.,-1.15981796824671E-17));
#464=DIRECTION('',(0.,0.,1.));
#465=DIRECTION('',(0.,0.,-1.));
#466=DIRECTION('',(0.,-1.,0.));
#467=DIRECTION('',(0.,0.,1.));
#468=DIRECTION('',(0.,0.,-1.));
#469=DIRECTION('',(0.,1.,0.));
#470=DIRECTION('',(0.,0.,-1.));
#471=DIRECTION('',(0.,1.,0.));
#472=DIRECTION('',(0.,0.,-1.));
#473=DIRECTION('',(0.,1.,0.));
#474=DIRECTION('',(0.,0.,1.));
#475=DIRECTION('',(0.,-1.,0.));
#476=DIRECTION('',(-1.,0.,0.));
#477=DIRECTION('',(0.,0.978147600733862,0.207911690817492));
#478=DIRECTION('',(1.,0.,0.));
#479=DIRECTION('',(0.,-0.978147600733862,0.207911690817492));
#480=DIRECTION('',(0.,0.,-1.));
#481=DIRECTION('',(0.,1.,0.));
#482=DIRECTION('',(0.,0.,1.));
#483=DIRECTION('',(0.,1.,0.));
#484=DIRECTION('',(0.,0.,-1.));
#485=DIRECTION('',(0.,1.,0.));
#486=DIRECTION('',(0.,-0.207911690817799,0.978147600733797));
#487=DIRECTION('',(0.,0.,1.));
#488=DIRECTION('',(0.,1.,0.));
#489=DIRECTION('',(0.,0.207911690817799,0.978147600733797));
#490=DIRECTION('',(0.,0.,1.));
#491=DIRECTION('',(0.,-1.,4.54597606939835E-16));
#492=DIRECTION('',(0.,0.,1.));
#493=DIRECTION('',(0.,-1.,0.));
#494=DIRECTION('',(0.,0.,1.));
#495=DIRECTION('',(0.,-1.,4.54597606939835E-16));
#496=DIRECTION('',(0.,0.,-1.));
#497=DIRECTION('',(0.,1.,0.));
#498=DIRECTION('',(0.,2.222133791906E-14,-1.));
#499=DIRECTION('',(0.,-2.222133791906E-14,-1.));
#500=DIRECTION('',(0.,0.,-1.));
#501=DIRECTION('',(0.,1.,0.));
#502=DIRECTION('',(0.,0.,-1.));
#503=DIRECTION('',(0.,-1.,0.));
#504=DIRECTION('',(0.,0.,-1.));
#505=DIRECTION('',(0.,1.,0.));
#506=DIRECTION('',(0.,0.707106781186547,0.707106781186547));
#507=DIRECTION('',(0.,0.,-1.));
#508=DIRECTION('',(0.,-1.,0.));
#509=DIRECTION('',(0.,-0.707106781186547,0.707106781186547));
#510=DIRECTION('',(0.,0.,-1.));
#511=DIRECTION('',(0.,1.,-4.15606323168888E-17));
#512=DIRECTION('',(0.,0.,-1.));
#513=DIRECTION('',(0.,1.,0.));
#514=DIRECTION('',(0.,0.,-1.));
#515=DIRECTION('',(0.,1.,-4.15606323168888E-17));
#516=DIRECTION('',(0.,0.,-1.));
#517=DIRECTION('',(0.,1.,0.));
#518=CARTESIAN_POINT('',(0.,0.,0.));
#519=CARTESIAN_POINT('CRP',(-0.25,0.,0.));
#520=CARTESIAN_POINT('',(0.,0.,0.));
#521=CARTESIAN_POINT('',(-0.25,0.,0.));
#522=CARTESIAN_POINT('',(-0.25,0.,0.7));
#523=CARTESIAN_POINT('',(0.,0.,0.7));
#524=CARTESIAN_POINT('',(0.,0.,0.));
#525=CARTESIAN_POINT('',(0.,0.,0.));
#526=CARTESIAN_POINT('',(0.,0.,0.));
#527=CARTESIAN_POINT('',(0.,0.,50.));
#528=CARTESIAN_POINT('',(0.,0.,32.));
#529=CARTESIAN_POINT('',(0.,0.,0.));
#530=CARTESIAN_POINT('',(0.,0.,0.));
#531=CARTESIAN_POINT('',(0.,0.,0.));
#532=CARTESIAN_POINT('',(0.,0.,0.));
#533=CARTESIAN_POINT('',(0.,0.,0.));
#534=CARTESIAN_POINT('',(0.,-0.25,0.7));
#535=CARTESIAN_POINT('',(0.,-0.25,0.7));
#536=CARTESIAN_POINT('',(0.,-0.25,0.));
#537=CARTESIAN_POINT('',(0.,0.,0.));
#538=CARTESIAN_POINT('',(0.,0.25,0.));
#539=CARTESIAN_POINT('',(0.,0.25,0.7));
#540=CARTESIAN_POINT('',(0.,0.25,0.7));
#541=CARTESIAN_POINT('',(0.,0.,0.7));
#542=CARTESIAN_POINT('',(0.,0.,52.5));
#543=CARTESIAN_POINT('',(0.,0.,0.7));
#544=CARTESIAN_POINT('',(150.,150.,0.7));
#545=CARTESIAN_POINT('',(0.,0.,0.));
#546=CARTESIAN_POINT('',(0.,0.,52.5));
#547=CARTESIAN_POINT('',(0.,0.,0.));
#548=CARTESIAN_POINT('',(0.,0.23,0.72));
#549=CARTESIAN_POINT('',(0.,0.23,0.72));
#550=CARTESIAN_POINT('',(0.,0.25,0.7));
#551=CARTESIAN_POINT('',(0.,0.,0.72));
#552=CARTESIAN_POINT('',(0.,-0.23,0.72));
#553=CARTESIAN_POINT('',(0.,-0.23,0.72));
#554=CARTESIAN_POINT('',(0.,-0.25,0.7));
#555=CARTESIAN_POINT('',(0.,0.,0.7));
#556=CARTESIAN_POINT('',(0.,0.,0.71));
#557=CARTESIAN_POINT('',(0.,0.,0.7));
#558=CARTESIAN_POINT('',(-150.,150.,0.7));
#559=CARTESIAN_POINT('',(0.,0.,0.72));
#560=CARTESIAN_POINT('',(0.,0.,0.71));
#561=CARTESIAN_POINT('',(0.,-0.23,7.717865280407));
#562=CARTESIAN_POINT('',(0.,-0.23,7.717865280407));
#563=CARTESIAN_POINT('',(0.,0.,7.717865280407));
#564=CARTESIAN_POINT('',(0.,0.23,7.717865280407));
#565=CARTESIAN_POINT('',(0.,0.23,7.717865280407));
#566=CARTESIAN_POINT('',(0.,0.,52.5));
#567=CARTESIAN_POINT('',(0.,0.,7.717865280407));
#568=CARTESIAN_POINT('',(0.,0.,52.5));
#569=CARTESIAN_POINT('',(0.,0.,8.133688662042));
#570=CARTESIAN_POINT('',(0.,-0.2737047985323,8.133688662042));
#571=CARTESIAN_POINT('',(0.,0.2737047985323,8.133688662042));
#572=CARTESIAN_POINT('',(0.,-2.23,7.717865280407));
#573=CARTESIAN_POINT('',(0.,2.23,7.717865280407));
#574=CARTESIAN_POINT('',(0.,0.,7.717865280407));
#575=CARTESIAN_POINT('',(0.,0.,8.133688662042));
#576=CARTESIAN_POINT('',(0.,0.,7.717865280407));
#577=CARTESIAN_POINT('',(0.,-1.999999999999,16.25526904471));
#578=CARTESIAN_POINT('',(0.,-1.999999999999,16.25526904471));
#579=CARTESIAN_POINT('',(0.,0.,16.25526904471));
#580=CARTESIAN_POINT('',(0.,1.999999999999,16.25526904471));
#581=CARTESIAN_POINT('',(0.,1.999999999999,16.25526904471));
#582=CARTESIAN_POINT('',(0.,0.,12.19447885338));
#583=CARTESIAN_POINT('',(0.,0.,16.25526904471));
#584=CARTESIAN_POINT('',(0.,0.,12.19447885338));
#585=CARTESIAN_POINT('',(0.,0.,49.5));
#586=CARTESIAN_POINT('',(0.,2.,49.5));
#587=CARTESIAN_POINT('',(0.,-2.,49.5));
#588=CARTESIAN_POINT('',(0.,-2.,49.5));
#589=CARTESIAN_POINT('',(0.,2.,49.5));
#590=CARTESIAN_POINT('',(0.,0.,52.5));
#591=CARTESIAN_POINT('',(0.,0.,49.5));
#592=CARTESIAN_POINT('',(0.,0.,52.5));
#593=CARTESIAN_POINT('',(0.,-1.5,50.));
#594=CARTESIAN_POINT('',(0.,-1.5,50.));
#595=CARTESIAN_POINT('',(0.,0.,50.));
#596=CARTESIAN_POINT('',(0.,1.5,50.));
#597=CARTESIAN_POINT('',(0.,1.5,50.));
#598=CARTESIAN_POINT('',(0.,0.,49.75));
#599=CARTESIAN_POINT('',(0.,0.,50.));
#600=CARTESIAN_POINT('',(0.,0.,49.75));
#601=CARTESIAN_POINT('',(0.,0.,50.));
#602=MECHANICAL_DESIGN_GEOMETRIC_PRESENTATION_REPRESENTATION('',(#314,#315,
#316,#317,#318,#319,#320,#321,#322,#323,#324,#325,#326,#327,#328,#329,#330),
#603);
#603=(
GEOMETRIC_REPRESENTATION_CONTEXT(3)
GLOBAL_UNCERTAINTY_ASSIGNED_CONTEXT((#604))
GLOBAL_UNIT_ASSIGNED_CONTEXT((#610,#606,#605))
REPRESENTATION_CONTEXT('MS2XLD0050N080','TOP_LEVEL_ASSEMBLY_PART')
);
#604=UNCERTAINTY_MEASURE_WITH_UNIT(LENGTH_MEASURE(2.E-5),#610,
'DISTANCE_ACCURACY_VALUE','Maximum Tolerance applied to model');
#605=(
NAMED_UNIT(*)
SI_UNIT($,.STERADIAN.)
SOLID_ANGLE_UNIT()
);
#606=(
CONVERSION_BASED_UNIT('DEGREE',#608)
NAMED_UNIT(#607)
PLANE_ANGLE_UNIT()
);
#607=DIMENSIONAL_EXPONENTS(0.,0.,0.,0.,0.,0.,0.);
#608=PLANE_ANGLE_MEASURE_WITH_UNIT(PLANE_ANGLE_MEASURE(0.0174532925),#609);
#609=(
NAMED_UNIT(*)
PLANE_ANGLE_UNIT()
SI_UNIT($,.RADIAN.)
);
#610=(
LENGTH_UNIT()
NAMED_UNIT(*)
SI_UNIT(.MILLI.,.METRE.)
);
ENDSEC;
END-ISO-10303-21;
