ISO-10303-21;
HEADER;
/* Generated by software containing ST-Developer
 * from STEP Tools, Inc. (www.steptools.com) 
 */
/* OPTION: using custom schema-name function */

FILE_DESCRIPTION(
/* description */ (''),
/* implementation_level */ '2;1');

FILE_NAME(
/* name */ 'TAWLN0112_ID1_1719.stp',
/* time_stamp */ '2025-06-11T17:03:17+09:00',
/* author */ (''),
/* organization */ (''),
/* preprocessor_version */ 'ST-DEVELOPER v18.101',
/* originating_system */ 'SIEMENS PLM Software NX 2011',
/* authorisation */ '');

FILE_SCHEMA (('AUTOMOTIVE_DESIGN { 1 0 10303 214 3 1 1 1 }'));
ENDSEC;

DATA;
#10=CONSTRUCTIVE_GEOMETRY_REPRESENTATION_RELATIONSHIP(
'supplemental geometry','',#26,#11);
#11=CONSTRUCTIVE_GEOMETRY_REPRESENTATION('supplemental geometry',(#356,
#357,#358,#359,#360,#361,#362),#620);
#12=GEOMETRICALLY_BOUNDED_WIREFRAME_SHAPE_REPRESENTATION(
'TAWLN0112_ID1_1719-None',(#27),#620);
#13=SHAPE_REPRESENTATION_RELATIONSHIP('None',
'relationship between TAWLN0112_ID1_1719-None and TAWLN0112_ID1_1719-N
one',#26,#15);
#14=SHAPE_REPRESENTATION_RELATIONSHIP('None',
'relationship between TAWLN0112_ID1_1719-None and TAWLN0112_ID1_1719-N
one',#26,#12);
#15=ADVANCED_BREP_SHAPE_REPRESENTATION('TAWLN0112_ID1_1719-None',(#42,#43),
#620);
#16=SHAPE_DEFINITION_REPRESENTATION(#17,#26);
#17=PRODUCT_DEFINITION_SHAPE('','SHAPE FOR TAWLN0112_ID1_1719_ASM.',#18);
#18=PRODUCT_DEFINITION('part definition','',#20,#19);
#19=PRODUCT_DEFINITION_CONTEXT('part definition',#25,'design');
#20=PRODUCT_DEFINITION_FORMATION_WITH_SPECIFIED_SOURCE(' ',' ',#22,
 .NOT_KNOWN.);
#21=PRODUCT_RELATED_PRODUCT_CATEGORY('part','',(#22));
#22=PRODUCT('TAWLN0112_ID1_1719_ASM','TAWLN0112_ID1_1719_ASM',
'NOT SPECIFIED',(#23));
#23=PRODUCT_CONTEXT('',#25,'mechanical');
#24=APPLICATION_PROTOCOL_DEFINITION('international standard',
'automotive_design',2010,#25);
#25=APPLICATION_CONTEXT(
'core data for automotive mechanical design processes');
#26=SHAPE_REPRESENTATION('TAWLN0112_ID1_1719-None',(#355),#620);
#27=GEOMETRIC_CURVE_SET('None',(#511,#287,#288,#289,#290));
#28=TOROIDAL_SURFACE('',#386,16.01532847336,0.4);
#29=TOROIDAL_SURFACE('',#388,16.01532847336,0.4);
#30=TOROIDAL_SURFACE('',#394,14.9,0.4);
#31=TOROIDAL_SURFACE('',#396,14.9,0.4);
#32=SURFACE_STYLE_USAGE(.BOTH.,#34);
#33=SURFACE_STYLE_USAGE(.BOTH.,#35);
#34=SURFACE_SIDE_STYLE('',(#36));
#35=SURFACE_SIDE_STYLE('',(#37));
#36=SURFACE_STYLE_FILL_AREA(#38);
#37=SURFACE_STYLE_FILL_AREA(#39);
#38=FILL_AREA_STYLE('',(#40));
#39=FILL_AREA_STYLE('',(#41));
#40=FILL_AREA_STYLE_COLOUR('',#353);
#41=FILL_AREA_STYLE_COLOUR('',#354);
#42=MANIFOLD_SOLID_BREP('CUT',#44);
#43=MANIFOLD_SOLID_BREP('NOCUT',#45);
#44=CLOSED_SHELL('',(#75,#76,#77,#78,#79));
#45=CLOSED_SHELL('',(#80,#81,#82,#83,#84,#85,#86,#87,#88,#89,#90,#91,#92,
#93));
#46=PLANE('',#369);
#47=PLANE('',#372);
#48=PLANE('',#399);
#49=CYLINDRICAL_SURFACE('',#366,14.88313);
#50=CYLINDRICAL_SURFACE('',#368,14.88313);
#51=CYLINDRICAL_SURFACE('',#375,15.875);
#52=CYLINDRICAL_SURFACE('',#380,15.875);
#53=CYLINDRICAL_SURFACE('',#400,14.5);
#54=CYLINDRICAL_SURFACE('',#401,14.5);
#55=CIRCLE('',#365,14.88313);
#56=CIRCLE('',#367,14.88313);
#57=CIRCLE('',#370,14.72029946162);
#58=CIRCLE('',#371,14.72029946162);
#59=CIRCLE('',#373,15.875);
#60=CIRCLE('',#374,15.875);
#61=CIRCLE('',#377,15.875);
#62=CIRCLE('',#379,15.875);
#63=CIRCLE('',#381,14.70849274504);
#64=CIRCLE('',#382,15.61546554337);
#65=CIRCLE('',#384,0.4);
#66=CIRCLE('',#385,0.4);
#67=CIRCLE('',#387,15.61546554337);
#68=CIRCLE('',#389,14.70849274504);
#69=CIRCLE('',#391,0.4);
#70=CIRCLE('',#392,0.4);
#71=CIRCLE('',#393,14.5);
#72=CIRCLE('',#395,14.5);
#73=CIRCLE('',#397,14.5);
#74=CIRCLE('',#398,14.5);
#75=ADVANCED_FACE('',(#100),#94,.T.);
#76=ADVANCED_FACE('',(#101),#95,.T.);
#77=ADVANCED_FACE('',(#102),#49,.T.);
#78=ADVANCED_FACE('',(#103),#50,.T.);
#79=ADVANCED_FACE('',(#104),#46,.T.);
#80=ADVANCED_FACE('',(#105),#47,.T.);
#81=ADVANCED_FACE('',(#106),#51,.T.);
#82=ADVANCED_FACE('',(#107),#96,.T.);
#83=ADVANCED_FACE('',(#108),#97,.T.);
#84=ADVANCED_FACE('',(#109),#52,.T.);
#85=ADVANCED_FACE('',(#110),#98,.T.);
#86=ADVANCED_FACE('',(#111),#28,.F.);
#87=ADVANCED_FACE('',(#112),#29,.F.);
#88=ADVANCED_FACE('',(#113),#99,.T.);
#89=ADVANCED_FACE('',(#114),#30,.F.);
#90=ADVANCED_FACE('',(#115),#31,.F.);
#91=ADVANCED_FACE('',(#116),#48,.F.);
#92=ADVANCED_FACE('',(#117),#53,.T.);
#93=ADVANCED_FACE('',(#118),#54,.T.);
#94=CONICAL_SURFACE('',#363,7.590396299995,70.0000971436908);
#95=CONICAL_SURFACE('',#364,7.590396299995,70.0000971436908);
#96=CONICAL_SURFACE('',#376,15.29764973081,30.0000416330103);
#97=CONICAL_SURFACE('',#378,15.29764973081,30.0000416330103);
#98=CONICAL_SURFACE('',#383,15.1619791442,1.50000208165052);
#99=CONICAL_SURFACE('',#390,15.1619791442,1.50000208165052);
#100=FACE_OUTER_BOUND('',#119,.T.);
#101=FACE_OUTER_BOUND('',#120,.T.);
#102=FACE_OUTER_BOUND('',#121,.T.);
#103=FACE_OUTER_BOUND('',#122,.T.);
#104=FACE_OUTER_BOUND('',#123,.T.);
#105=FACE_OUTER_BOUND('',#124,.T.);
#106=FACE_OUTER_BOUND('',#125,.T.);
#107=FACE_OUTER_BOUND('',#126,.T.);
#108=FACE_OUTER_BOUND('',#127,.T.);
#109=FACE_OUTER_BOUND('',#128,.T.);
#110=FACE_OUTER_BOUND('',#129,.T.);
#111=FACE_OUTER_BOUND('',#130,.T.);
#112=FACE_OUTER_BOUND('',#131,.T.);
#113=FACE_OUTER_BOUND('',#132,.T.);
#114=FACE_OUTER_BOUND('',#133,.T.);
#115=FACE_OUTER_BOUND('',#134,.T.);
#116=FACE_OUTER_BOUND('',#135,.T.);
#117=FACE_OUTER_BOUND('',#136,.T.);
#118=FACE_OUTER_BOUND('',#137,.T.);
#119=EDGE_LOOP('',(#138,#139,#140));
#120=EDGE_LOOP('',(#141,#142,#143));
#121=EDGE_LOOP('',(#144,#145,#146,#147));
#122=EDGE_LOOP('',(#148,#149,#150,#151));
#123=EDGE_LOOP('',(#152,#153));
#124=EDGE_LOOP('',(#154,#155));
#125=EDGE_LOOP('',(#156,#157,#158,#159));
#126=EDGE_LOOP('',(#160,#161,#162,#163));
#127=EDGE_LOOP('',(#164,#165,#166,#167));
#128=EDGE_LOOP('',(#168,#169,#170,#171));
#129=EDGE_LOOP('',(#172,#173,#174,#175));
#130=EDGE_LOOP('',(#176,#177,#178,#179));
#131=EDGE_LOOP('',(#180,#181,#182,#183));
#132=EDGE_LOOP('',(#184,#185,#186,#187));
#133=EDGE_LOOP('',(#188,#189,#190,#191));
#134=EDGE_LOOP('',(#192,#193,#194,#195));
#135=EDGE_LOOP('',(#196,#197));
#136=EDGE_LOOP('',(#198,#199,#200,#201));
#137=EDGE_LOOP('',(#202,#203,#204,#205));
#138=ORIENTED_EDGE('',*,*,#225,.T.);
#139=ORIENTED_EDGE('',*,*,#226,.F.);
#140=ORIENTED_EDGE('',*,*,#227,.T.);
#141=ORIENTED_EDGE('',*,*,#227,.F.);
#142=ORIENTED_EDGE('',*,*,#226,.T.);
#143=ORIENTED_EDGE('',*,*,#228,.T.);
#144=ORIENTED_EDGE('',*,*,#228,.F.);
#145=ORIENTED_EDGE('',*,*,#229,.F.);
#146=ORIENTED_EDGE('',*,*,#230,.F.);
#147=ORIENTED_EDGE('',*,*,#231,.T.);
#148=ORIENTED_EDGE('',*,*,#225,.F.);
#149=ORIENTED_EDGE('',*,*,#231,.F.);
#150=ORIENTED_EDGE('',*,*,#232,.F.);
#151=ORIENTED_EDGE('',*,*,#229,.T.);
#152=ORIENTED_EDGE('',*,*,#230,.T.);
#153=ORIENTED_EDGE('',*,*,#232,.T.);
#154=ORIENTED_EDGE('',*,*,#233,.T.);
#155=ORIENTED_EDGE('',*,*,#234,.T.);
#156=ORIENTED_EDGE('',*,*,#235,.F.);
#157=ORIENTED_EDGE('',*,*,#236,.F.);
#158=ORIENTED_EDGE('',*,*,#237,.T.);
#159=ORIENTED_EDGE('',*,*,#238,.F.);
#160=ORIENTED_EDGE('',*,*,#233,.F.);
#161=ORIENTED_EDGE('',*,*,#239,.F.);
#162=ORIENTED_EDGE('',*,*,#238,.T.);
#163=ORIENTED_EDGE('',*,*,#240,.T.);
#164=ORIENTED_EDGE('',*,*,#241,.T.);
#165=ORIENTED_EDGE('',*,*,#239,.T.);
#166=ORIENTED_EDGE('',*,*,#234,.F.);
#167=ORIENTED_EDGE('',*,*,#240,.F.);
#168=ORIENTED_EDGE('',*,*,#237,.F.);
#169=ORIENTED_EDGE('',*,*,#242,.F.);
#170=ORIENTED_EDGE('',*,*,#235,.T.);
#171=ORIENTED_EDGE('',*,*,#241,.F.);
#172=ORIENTED_EDGE('',*,*,#243,.T.);
#173=ORIENTED_EDGE('',*,*,#244,.F.);
#174=ORIENTED_EDGE('',*,*,#245,.F.);
#175=ORIENTED_EDGE('',*,*,#246,.F.);
#176=ORIENTED_EDGE('',*,*,#247,.F.);
#177=ORIENTED_EDGE('',*,*,#242,.T.);
#178=ORIENTED_EDGE('',*,*,#248,.T.);
#179=ORIENTED_EDGE('',*,*,#246,.T.);
#180=ORIENTED_EDGE('',*,*,#248,.F.);
#181=ORIENTED_EDGE('',*,*,#236,.T.);
#182=ORIENTED_EDGE('',*,*,#247,.T.);
#183=ORIENTED_EDGE('',*,*,#249,.T.);
#184=ORIENTED_EDGE('',*,*,#245,.T.);
#185=ORIENTED_EDGE('',*,*,#250,.F.);
#186=ORIENTED_EDGE('',*,*,#243,.F.);
#187=ORIENTED_EDGE('',*,*,#249,.F.);
#188=ORIENTED_EDGE('',*,*,#251,.T.);
#189=ORIENTED_EDGE('',*,*,#250,.T.);
#190=ORIENTED_EDGE('',*,*,#252,.F.);
#191=ORIENTED_EDGE('',*,*,#253,.T.);
#192=ORIENTED_EDGE('',*,*,#252,.T.);
#193=ORIENTED_EDGE('',*,*,#244,.T.);
#194=ORIENTED_EDGE('',*,*,#251,.F.);
#195=ORIENTED_EDGE('',*,*,#254,.T.);
#196=ORIENTED_EDGE('',*,*,#255,.T.);
#197=ORIENTED_EDGE('',*,*,#256,.T.);
#198=ORIENTED_EDGE('',*,*,#254,.F.);
#199=ORIENTED_EDGE('',*,*,#257,.T.);
#200=ORIENTED_EDGE('',*,*,#255,.F.);
#201=ORIENTED_EDGE('',*,*,#258,.F.);
#202=ORIENTED_EDGE('',*,*,#253,.F.);
#203=ORIENTED_EDGE('',*,*,#258,.T.);
#204=ORIENTED_EDGE('',*,*,#256,.F.);
#205=ORIENTED_EDGE('',*,*,#257,.F.);
#206=VERTEX_POINT('',#533);
#207=VERTEX_POINT('',#534);
#208=VERTEX_POINT('',#539);
#209=VERTEX_POINT('',#557);
#210=VERTEX_POINT('',#559);
#211=VERTEX_POINT('',#566);
#212=VERTEX_POINT('',#567);
#213=VERTEX_POINT('',#571);
#214=VERTEX_POINT('',#572);
#215=VERTEX_POINT('',#574);
#216=VERTEX_POINT('',#576);
#217=VERTEX_POINT('',#587);
#218=VERTEX_POINT('',#588);
#219=VERTEX_POINT('',#590);
#220=VERTEX_POINT('',#592);
#221=VERTEX_POINT('',#603);
#222=VERTEX_POINT('',#605);
#223=VERTEX_POINT('',#611);
#224=VERTEX_POINT('',#612);
#225=EDGE_CURVE('',#206,#207,#259,.T.);
#226=EDGE_CURVE('',#208,#207,#260,.T.);
#227=EDGE_CURVE('',#208,#206,#261,.T.);
#228=EDGE_CURVE('',#207,#206,#262,.T.);
#229=EDGE_CURVE('',#209,#207,#295,.T.);
#230=EDGE_CURVE('',#210,#209,#55,.T.);
#231=EDGE_CURVE('',#210,#206,#296,.T.);
#232=EDGE_CURVE('',#209,#210,#56,.T.);
#233=EDGE_CURVE('',#211,#212,#57,.T.);
#234=EDGE_CURVE('',#212,#211,#58,.T.);
#235=EDGE_CURVE('',#213,#214,#297,.T.);
#236=EDGE_CURVE('',#215,#213,#59,.T.);
#237=EDGE_CURVE('',#215,#216,#298,.T.);
#238=EDGE_CURVE('',#214,#216,#60,.T.);
#239=EDGE_CURVE('',#214,#211,#299,.T.);
#240=EDGE_CURVE('',#216,#212,#300,.T.);
#241=EDGE_CURVE('',#216,#214,#61,.T.);
#242=EDGE_CURVE('',#213,#215,#62,.T.);
#243=EDGE_CURVE('',#217,#218,#301,.T.);
#244=EDGE_CURVE('',#219,#218,#63,.T.);
#245=EDGE_CURVE('',#220,#219,#302,.T.);
#246=EDGE_CURVE('',#217,#220,#64,.T.);
#247=EDGE_CURVE('',#213,#220,#65,.T.);
#248=EDGE_CURVE('',#215,#217,#66,.T.);
#249=EDGE_CURVE('',#220,#217,#67,.T.);
#250=EDGE_CURVE('',#218,#219,#68,.T.);
#251=EDGE_CURVE('',#221,#218,#69,.T.);
#252=EDGE_CURVE('',#222,#219,#70,.T.);
#253=EDGE_CURVE('',#222,#221,#71,.T.);
#254=EDGE_CURVE('',#221,#222,#72,.T.);
#255=EDGE_CURVE('',#223,#224,#73,.T.);
#256=EDGE_CURVE('',#224,#223,#74,.T.);
#257=EDGE_CURVE('',#221,#224,#303,.T.);
#258=EDGE_CURVE('',#222,#223,#304,.T.);
#259=B_SPLINE_CURVE_WITH_KNOTS('',3,(#523,#524,#525,#526,#527,#528,#529,
#530,#531,#532),.UNSPECIFIED.,.F.,.F.,(4,2,2,2,4),(0.,0.25,0.5,0.75,1.),
 .UNSPECIFIED.);
#260=B_SPLINE_CURVE_WITH_KNOTS('',3,(#535,#536,#537,#538),.UNSPECIFIED.,
 .F.,.F.,(4,4),(0.,1.),.UNSPECIFIED.);
#261=B_SPLINE_CURVE_WITH_KNOTS('',3,(#540,#541,#542,#543),.UNSPECIFIED.,
 .F.,.F.,(4,4),(0.,1.),.UNSPECIFIED.);
#262=B_SPLINE_CURVE_WITH_KNOTS('',3,(#545,#546,#547,#548,#549,#550,#551,
#552,#553,#554),.UNSPECIFIED.,.F.,.F.,(4,2,2,2,4),(0.,0.25,0.5,0.75,1.),
 .UNSPECIFIED.);
#263=CURVE_STYLE('',#276,POSITIVE_LENGTH_MEASURE(0.13),#274);
#264=CURVE_STYLE('',#277,POSITIVE_LENGTH_MEASURE(0.13),#274);
#265=CURVE_STYLE('',#278,POSITIVE_LENGTH_MEASURE(0.13),#274);
#266=CURVE_STYLE('',#279,POSITIVE_LENGTH_MEASURE(0.13),#274);
#267=CURVE_STYLE('',#280,POSITIVE_LENGTH_MEASURE(0.13),#352);
#268=CURVE_STYLE('',#281,POSITIVE_LENGTH_MEASURE(0.13),#352);
#269=CURVE_STYLE('',#282,POSITIVE_LENGTH_MEASURE(0.13),#275);
#270=CURVE_STYLE('',#283,POSITIVE_LENGTH_MEASURE(0.13),#275);
#271=CURVE_STYLE('',#284,POSITIVE_LENGTH_MEASURE(0.13),#275);
#272=CURVE_STYLE('',#285,POSITIVE_LENGTH_MEASURE(0.13),#352);
#273=CURVE_STYLE('',#286,POSITIVE_LENGTH_MEASURE(0.13),#352);
#274=DRAUGHTING_PRE_DEFINED_COLOUR('blue');
#275=DRAUGHTING_PRE_DEFINED_COLOUR('yellow');
#276=DRAUGHTING_PRE_DEFINED_CURVE_FONT('continuous');
#277=DRAUGHTING_PRE_DEFINED_CURVE_FONT('continuous');
#278=DRAUGHTING_PRE_DEFINED_CURVE_FONT('continuous');
#279=DRAUGHTING_PRE_DEFINED_CURVE_FONT('continuous');
#280=DRAUGHTING_PRE_DEFINED_CURVE_FONT('continuous');
#281=DRAUGHTING_PRE_DEFINED_CURVE_FONT('continuous');
#282=DRAUGHTING_PRE_DEFINED_CURVE_FONT('continuous');
#283=DRAUGHTING_PRE_DEFINED_CURVE_FONT('continuous');
#284=DRAUGHTING_PRE_DEFINED_CURVE_FONT('continuous');
#285=DRAUGHTING_PRE_DEFINED_CURVE_FONT('continuous');
#286=DRAUGHTING_PRE_DEFINED_CURVE_FONT('continuous');
#287=TRIMMED_CURVE('',#291,(PARAMETER_VALUE(0.)),(PARAMETER_VALUE(1.)),
 .T.,.PARAMETER.);
#288=TRIMMED_CURVE('',#292,(PARAMETER_VALUE(0.)),(PARAMETER_VALUE(1.)),
 .T.,.PARAMETER.);
#289=TRIMMED_CURVE('',#293,(PARAMETER_VALUE(0.)),(PARAMETER_VALUE(1.)),
 .T.,.PARAMETER.);
#290=TRIMMED_CURVE('',#294,(PARAMETER_VALUE(0.)),(PARAMETER_VALUE(1.)),
 .T.,.PARAMETER.);
#291=LINE('',#512,#305);
#292=LINE('',#513,#306);
#293=LINE('',#514,#307);
#294=LINE('',#515,#308);
#295=LINE('',#556,#309);
#296=LINE('',#560,#310);
#297=LINE('',#570,#311);
#298=LINE('',#575,#312);
#299=LINE('',#579,#313);
#300=LINE('',#580,#314);
#301=LINE('',#586,#315);
#302=LINE('',#591,#316);
#303=LINE('',#615,#317);
#304=LINE('',#616,#318);
#305=VECTOR('',#404,14.88313);
#306=VECTOR('',#405,17.32972703591);
#307=VECTOR('',#406,15.83829613087);
#308=VECTOR('',#407,11.9127107232);
#309=VECTOR('',#426,1.);
#310=VECTOR('',#429,1.);
#311=VECTOR('',#444,1.);
#312=VECTOR('',#447,1.);
#313=VECTOR('',#452,1.);
#314=VECTOR('',#453,1.);
#315=VECTOR('',#464,1.);
#316=VECTOR('',#467,1.);
#317=VECTOR('',#504,1.);
#318=VECTOR('',#505,1.);
#319=PRESENTATION_LAYER_ASSIGNMENT('1','Layer 1',(#511,#356,#357,#358,#359,
#361,#362,#42,#43));
#320=PRESENTATION_LAYER_ASSIGNMENT('2','Layer 2',(#287,#288,#289,#290,#360));
#321=STYLED_ITEM('',(#335),#511);
#322=STYLED_ITEM('',(#336),#287);
#323=STYLED_ITEM('',(#337),#288);
#324=STYLED_ITEM('',(#338),#289);
#325=STYLED_ITEM('',(#339),#290);
#326=STYLED_ITEM('',(#340),#356);
#327=STYLED_ITEM('',(#341),#357);
#328=STYLED_ITEM('',(#342),#358);
#329=STYLED_ITEM('',(#343),#359);
#330=STYLED_ITEM('',(#344),#360);
#331=STYLED_ITEM('',(#345),#361);
#332=STYLED_ITEM('',(#346),#362);
#333=STYLED_ITEM('',(#347),#42);
#334=STYLED_ITEM('',(#348),#43);
#335=PRESENTATION_STYLE_ASSIGNMENT((#349));
#336=PRESENTATION_STYLE_ASSIGNMENT((#263));
#337=PRESENTATION_STYLE_ASSIGNMENT((#264));
#338=PRESENTATION_STYLE_ASSIGNMENT((#265));
#339=PRESENTATION_STYLE_ASSIGNMENT((#266));
#340=PRESENTATION_STYLE_ASSIGNMENT((#267));
#341=PRESENTATION_STYLE_ASSIGNMENT((#268));
#342=PRESENTATION_STYLE_ASSIGNMENT((#269));
#343=PRESENTATION_STYLE_ASSIGNMENT((#270));
#344=PRESENTATION_STYLE_ASSIGNMENT((#271));
#345=PRESENTATION_STYLE_ASSIGNMENT((#272));
#346=PRESENTATION_STYLE_ASSIGNMENT((#273));
#347=PRESENTATION_STYLE_ASSIGNMENT((#32));
#348=PRESENTATION_STYLE_ASSIGNMENT((#33));
#349=POINT_STYLE('',#350,POSITIVE_LENGTH_MEASURE(3.),#351);
#350=PRE_DEFINED_POINT_MARKER_SYMBOL('plus');
#351=COLOUR_RGB('Medium Royal',0.301960784313725,0.427450980392157,0.701960784313725);
#352=COLOUR_RGB('Medium Maroon',0.6,0.4,0.4);
#353=COLOUR_RGB('light gray',0.8,0.8,0.8);
#354=COLOUR_RGB('medium gray',0.490196078431373,0.490196078431373,0.490196078431373);
#355=AXIS2_PLACEMENT_3D('',#510,#402,#403);
#356=AXIS2_PLACEMENT_3D('',#516,#408,#409);
#357=AXIS2_PLACEMENT_3D('',#517,#410,#411);
#358=AXIS2_PLACEMENT_3D('MCS',#518,#412,#413);
#359=AXIS2_PLACEMENT_3D('CIP',#519,#414,#415);
#360=AXIS2_PLACEMENT_3D('PCS',#520,#416,#417);
#361=AXIS2_PLACEMENT_3D('',#521,#418,#419);
#362=AXIS2_PLACEMENT_3D('',#522,#420,#421);
#363=AXIS2_PLACEMENT_3D('',#544,#422,#423);
#364=AXIS2_PLACEMENT_3D('',#555,#424,#425);
#365=AXIS2_PLACEMENT_3D('',#558,#427,#428);
#366=AXIS2_PLACEMENT_3D('',#561,#430,#431);
#367=AXIS2_PLACEMENT_3D('',#562,#432,#433);
#368=AXIS2_PLACEMENT_3D('',#563,#434,#435);
#369=AXIS2_PLACEMENT_3D('',#564,#436,#437);
#370=AXIS2_PLACEMENT_3D('',#565,#438,#439);
#371=AXIS2_PLACEMENT_3D('',#568,#440,#441);
#372=AXIS2_PLACEMENT_3D('',#569,#442,#443);
#373=AXIS2_PLACEMENT_3D('',#573,#445,#446);
#374=AXIS2_PLACEMENT_3D('',#577,#448,#449);
#375=AXIS2_PLACEMENT_3D('',#578,#450,#451);
#376=AXIS2_PLACEMENT_3D('',#581,#454,#455);
#377=AXIS2_PLACEMENT_3D('',#582,#456,#457);
#378=AXIS2_PLACEMENT_3D('',#583,#458,#459);
#379=AXIS2_PLACEMENT_3D('',#584,#460,#461);
#380=AXIS2_PLACEMENT_3D('',#585,#462,#463);
#381=AXIS2_PLACEMENT_3D('',#589,#465,#466);
#382=AXIS2_PLACEMENT_3D('',#593,#468,#469);
#383=AXIS2_PLACEMENT_3D('',#594,#470,#471);
#384=AXIS2_PLACEMENT_3D('',#595,#472,#473);
#385=AXIS2_PLACEMENT_3D('',#596,#474,#475);
#386=AXIS2_PLACEMENT_3D('',#597,#476,#477);
#387=AXIS2_PLACEMENT_3D('',#598,#478,#479);
#388=AXIS2_PLACEMENT_3D('',#599,#480,#481);
#389=AXIS2_PLACEMENT_3D('',#600,#482,#483);
#390=AXIS2_PLACEMENT_3D('',#601,#484,#485);
#391=AXIS2_PLACEMENT_3D('',#602,#486,#487);
#392=AXIS2_PLACEMENT_3D('',#604,#488,#489);
#393=AXIS2_PLACEMENT_3D('',#606,#490,#491);
#394=AXIS2_PLACEMENT_3D('',#607,#492,#493);
#395=AXIS2_PLACEMENT_3D('',#608,#494,#495);
#396=AXIS2_PLACEMENT_3D('',#609,#496,#497);
#397=AXIS2_PLACEMENT_3D('',#610,#498,#499);
#398=AXIS2_PLACEMENT_3D('',#613,#500,#501);
#399=AXIS2_PLACEMENT_3D('',#614,#502,#503);
#400=AXIS2_PLACEMENT_3D('',#617,#506,#507);
#401=AXIS2_PLACEMENT_3D('',#618,#508,#509);
#402=DIRECTION('',(0.,0.,1.));
#403=DIRECTION('',(1.,0.,0.));
#404=DIRECTION('',(1.,0.,0.));
#405=DIRECTION('',(0.,0.,-1.));
#406=DIRECTION('',(-0.939692620785898,0.,0.342020143325698));
#407=DIRECTION('',(0.,0.,1.));
#408=DIRECTION('',(0.,0.,1.));
#409=DIRECTION('',(1.,0.,0.));
#410=DIRECTION('',(0.,0.,1.));
#411=DIRECTION('',(1.,0.,0.));
#412=DIRECTION('',(0.,0.,1.));
#413=DIRECTION('',(1.,0.,0.));
#414=DIRECTION('',(0.,0.,1.));
#415=DIRECTION('',(1.,0.,0.));
#416=DIRECTION('',(0.,0.,1.));
#417=DIRECTION('',(1.,0.,0.));
#418=DIRECTION('',(0.,0.,1.));
#419=DIRECTION('',(1.,0.,0.));
#420=DIRECTION('',(0.,0.,1.));
#421=DIRECTION('',(1.,0.,0.));
#422=DIRECTION('',(0.,0.,1.));
#423=DIRECTION('',(1.,0.,2.01486362251777E-17));
#424=DIRECTION('',(0.,0.,1.));
#425=DIRECTION('',(1.,0.,2.01486362251777E-17));
#426=DIRECTION('',(4.038018241921E-13,0.,-1.));
#427=DIRECTION('',(0.,0.,1.));
#428=DIRECTION('',(1.,0.,0.));
#429=DIRECTION('',(-4.038018241921E-13,0.,-1.));
#430=DIRECTION('',(0.,0.,-1.));
#431=DIRECTION('',(-1.,0.,0.));
#432=DIRECTION('',(0.,0.,1.));
#433=DIRECTION('',(-1.,0.,0.));
#434=DIRECTION('',(0.,0.,-1.));
#435=DIRECTION('',(-1.,0.,0.));
#436=DIRECTION('',(0.,0.,1.));
#437=DIRECTION('',(-1.,0.,0.));
#438=DIRECTION('',(0.,0.,1.));
#439=DIRECTION('',(-1.,0.,0.));
#440=DIRECTION('',(0.,0.,1.));
#441=DIRECTION('',(1.,0.,0.));
#442=DIRECTION('',(0.,0.,1.));
#443=DIRECTION('',(-1.,0.,0.));
#444=DIRECTION('',(-1.06210904372995E-11,1.70077860471792E-6,0.999999999998554));
#445=DIRECTION('',(0.,0.,-1.));
#446=DIRECTION('',(0.999999999998765,1.57182057757194E-6,0.));
#447=DIRECTION('',(1.06210904372995E-11,-1.70077860471792E-6,0.999999999998554));
#448=DIRECTION('',(0.,0.,1.));
#449=DIRECTION('',(-1.,0.,0.));
#450=DIRECTION('',(0.,0.,1.));
#451=DIRECTION('',(-1.,0.,0.));
#452=DIRECTION('',(0.500000000000092,0.,0.866025403784386));
#453=DIRECTION('',(-0.499999999989597,-5.40240755897697E-6,0.866025403773594));
#454=DIRECTION('',(0.,0.,-1.));
#455=DIRECTION('',(1.,0.,1.17082711992853E-17));
#456=DIRECTION('',(0.,0.,1.));
#457=DIRECTION('',(0.999999999998765,1.57182057757194E-6,0.));
#458=DIRECTION('',(0.,0.,-1.));
#459=DIRECTION('',(1.,0.,1.17082711992853E-17));
#460=DIRECTION('',(0.,0.,-1.));
#461=DIRECTION('',(-1.,0.,0.));
#462=DIRECTION('',(0.,0.,1.));
#463=DIRECTION('',(-1.,0.,0.));
#464=DIRECTION('',(-0.0261769482996808,-1.44202799984905E-6,-0.999657324974732));
#465=DIRECTION('',(0.,0.,-1.));
#466=DIRECTION('',(-1.,0.,0.));
#467=DIRECTION('',(0.0261769483000103,1.38047058088301E-6,-0.99965732497481));
#468=DIRECTION('',(0.,0.,1.));
#469=DIRECTION('',(0.999999999994692,3.25832790202797E-6,0.));
#470=DIRECTION('',(0.,0.,1.));
#471=DIRECTION('',(-1.,0.,-6.71268691559395E-16));
#472=DIRECTION('',(-1.240947132095E-5,0.999999999923003,0.));
#473=DIRECTION('',(0.350821183372997,4.35350541418294E-6,0.936442468749583));
#474=DIRECTION('',(1.25745646244405E-5,-0.99999999992094,0.));
#475=DIRECTION('',(-0.350821183372294,-4.41142364228491E-6,0.936442468749575));
#476=DIRECTION('',(0.,0.,1.));
#477=DIRECTION('',(-0.99999999992094,-1.25745646245605E-5,0.));
#478=DIRECTION('',(0.,0.,1.));
#479=DIRECTION('',(-1.,0.,0.));
#480=DIRECTION('',(0.,0.,1.));
#481=DIRECTION('',(0.999999999923003,1.240947132107E-5,0.));
#482=DIRECTION('',(0.,0.,-1.));
#483=DIRECTION('',(0.999999999994692,3.25832790202797E-6,0.));
#484=DIRECTION('',(0.,0.,1.));
#485=DIRECTION('',(-1.,0.,-8.39085864449243E-16));
#486=DIRECTION('',(0.,1.,0.));
#487=DIRECTION('',(-0.478768137396981,0.,0.877941382219464));
#488=DIRECTION('',(0.,-1.,0.));
#489=DIRECTION('',(0.478768137396981,0.,0.877941382219464));
#490=DIRECTION('',(0.,0.,1.));
#491=DIRECTION('',(-1.,0.,0.));
#492=DIRECTION('',(0.,0.,1.));
#493=DIRECTION('',(0.999999999911036,1.33389318999105E-5,0.));
#494=DIRECTION('',(0.,0.,1.));
#495=DIRECTION('',(0.999999999998573,1.68964000289895E-6,0.));
#496=DIRECTION('',(0.,0.,1.));
#497=DIRECTION('',(-0.999999999908644,-1.35171200281106E-5,0.));
#498=DIRECTION('',(0.,0.,-1.));
#499=DIRECTION('',(-1.,0.,0.));
#500=DIRECTION('',(0.,0.,-1.));
#501=DIRECTION('',(1.,0.,0.));
#502=DIRECTION('',(0.,0.,1.));
#503=DIRECTION('',(0.,-1.,0.));
#504=DIRECTION('',(1.34023260088298E-12,-1.85971645694997E-7,-0.999999999999983));
#505=DIRECTION('',(-1.39116926005297E-12,2.05838278859396E-7,-0.999999999999979));
#506=DIRECTION('',(0.,0.,1.));
#507=DIRECTION('',(-1.,0.,0.));
#508=DIRECTION('',(0.,0.,1.));
#509=DIRECTION('',(-1.,0.,0.));
#510=CARTESIAN_POINT('',(0.,0.,0.));
#511=CARTESIAN_POINT('',(-14.88313,0.,-315.4126));
#512=CARTESIAN_POINT('',(-14.88313,0.,-303.4998892768));
#513=CARTESIAN_POINT('',(0.,0.,-303.4998892768));
#514=CARTESIAN_POINT('',(0.,0.,-320.8296163127));
#515=CARTESIAN_POINT('',(-14.88313,0.,-315.4126));
#516=CARTESIAN_POINT('',(0.,0.,-30.1));
#517=CARTESIAN_POINT('',(0.,0.,-30.1));
#518=CARTESIAN_POINT('',(0.,0.,-30.1));
#519=CARTESIAN_POINT('',(0.,0.,-320.829616313));
#520=CARTESIAN_POINT('',(0.,0.,0.));
#521=CARTESIAN_POINT('',(0.,0.,-30.1));
#522=CARTESIAN_POINT('',(0.,0.,-30.1));
#523=CARTESIAN_POINT('',(14.88312999999,-3.64531550315634E-15,-315.412614002628));
#524=CARTESIAN_POINT('',(14.88312999999,-3.89639432253254,-315.412614002628));
#525=CARTESIAN_POINT('',(13.2791289959134,-7.76879530063435,-315.412614002628));
#526=CARTESIAN_POINT('',(7.76879530063435,-13.2791289959134,-315.412614002628));
#527=CARTESIAN_POINT('',(3.89639432253253,-14.88312999999,-315.412614002628));
#528=CARTESIAN_POINT('',(-3.89639432253254,-14.88312999999,-315.412614002628));
#529=CARTESIAN_POINT('',(-7.76879530063435,-13.2791289959134,-315.412614002628));
#530=CARTESIAN_POINT('',(-13.2791289959134,-7.76879530063435,-315.412614002628));
#531=CARTESIAN_POINT('',(-14.88312999999,-3.89639432253254,-315.412614002628));
#532=CARTESIAN_POINT('',(-14.88312999999,1.82265775157817E-15,-315.412614002628));
#533=CARTESIAN_POINT('',(14.88313,0.,-315.4126));
#534=CARTESIAN_POINT('',(-14.88312999999,0.,-315.4126));
#535=CARTESIAN_POINT('',(0.,0.,-320.829601738489));
#536=CARTESIAN_POINT('',(-4.96104483344322,6.07552767570275E-16,-319.023938613875));
#537=CARTESIAN_POINT('',(-9.92208966688644,1.21510553514055E-15,-317.218275489261));
#538=CARTESIAN_POINT('',(-14.8831345003297,1.82265830271083E-15,-315.412612364647));
#539=CARTESIAN_POINT('',(0.,0.,-320.8296163127));
#540=CARTESIAN_POINT('',(0.,0.,-320.829601738489));
#541=CARTESIAN_POINT('',(4.96104333333345,0.,-319.023939159868));
#542=CARTESIAN_POINT('',(9.9220866666669,0.,-317.218276581246));
#543=CARTESIAN_POINT('',(14.8831300000004,0.,-315.412614002624));
#544=CARTESIAN_POINT('',(0.,0.,-318.0669379932));
#545=CARTESIAN_POINT('',(-14.88312999999,1.82265775157817E-15,-315.412614002628));
#546=CARTESIAN_POINT('',(-14.88312999999,3.89639432253254,-315.412614002628));
#547=CARTESIAN_POINT('',(-13.2791289959134,7.76879530063436,-315.412614002628));
#548=CARTESIAN_POINT('',(-7.76879530063435,13.2791289959134,-315.412614002628));
#549=CARTESIAN_POINT('',(-3.89639432253254,14.88312999999,-315.412614002628));
#550=CARTESIAN_POINT('',(3.89639432253254,14.88312999999,-315.412614002628));
#551=CARTESIAN_POINT('',(7.76879530063435,13.2791289959134,-315.412614002628));
#552=CARTESIAN_POINT('',(13.2791289959134,7.76879530063435,-315.412614002628));
#553=CARTESIAN_POINT('',(14.88312999999,3.89639432253254,-315.412614002628));
#554=CARTESIAN_POINT('',(14.88312999999,1.82265775157817E-15,-315.412614002628));
#555=CARTESIAN_POINT('',(0.,0.,-318.0669379932));
#556=CARTESIAN_POINT('',(-14.88313,0.,-303.4998892768));
#557=CARTESIAN_POINT('',(-14.88313,0.,-303.4998892768));
#558=CARTESIAN_POINT('',(0.,0.,-303.4998892768));
#559=CARTESIAN_POINT('',(14.88313,0.,-303.4998892768));
#560=CARTESIAN_POINT('',(14.88313,0.,-303.4998892768));
#561=CARTESIAN_POINT('',(0.,0.,-15.56351918436));
#562=CARTESIAN_POINT('',(0.,0.,-303.4998892768));
#563=CARTESIAN_POINT('',(0.,0.,-15.56351918436));
#564=CARTESIAN_POINT('',(0.,0.,-303.4998892768));
#565=CARTESIAN_POINT('',(0.,0.,30.2));
#566=CARTESIAN_POINT('',(-14.72029946162,0.,30.2));
#567=CARTESIAN_POINT('',(14.72029946162,0.,30.2));
#568=CARTESIAN_POINT('',(0.,0.,30.2));
#569=CARTESIAN_POINT('',(0.,0.,30.2));
#570=CARTESIAN_POINT('',(-15.87499999938,-9.915539265679E-5,-30.1000000009452));
#571=CARTESIAN_POINT('',(-15.87499999878,-0.00019700035722,-30.1000000009402));
#572=CARTESIAN_POINT('',(-15.875,0.,28.2));
#573=CARTESIAN_POINT('',(0.,0.,-30.1000000009402));
#574=CARTESIAN_POINT('',(15.87499999998,2.495265166895E-5,-30.1000000009502));
#575=CARTESIAN_POINT('',(15.87499999937,0.0001116317184922,-30.1000000009452));
#576=CARTESIAN_POINT('',(15.87499999998,2.49526516619E-5,28.2));
#577=CARTESIAN_POINT('',(0.,0.,28.2));
#578=CARTESIAN_POINT('',(0.,0.,-384.865));
#579=CARTESIAN_POINT('',(-14.72029946162,0.,30.2));
#580=CARTESIAN_POINT('',(14.72029946162,0.,30.2));
#581=CARTESIAN_POINT('',(0.,0.,29.2));
#582=CARTESIAN_POINT('',(0.,0.,28.2));
#583=CARTESIAN_POINT('',(0.,0.,29.2));
#584=CARTESIAN_POINT('',(0.,0.,-30.1000000009502));
#585=CARTESIAN_POINT('',(0.,0.,-384.865));
#586=CARTESIAN_POINT('',(14.70849274467,7.301144191321E-5,-65.10000000149));
#587=CARTESIAN_POINT('',(15.61546554329,5.088030707618E-5,-30.46410620912));
#588=CARTESIAN_POINT('',(14.70849274496,4.792509230794E-5,-65.1000000015));
#589=CARTESIAN_POINT('',(0.,0.,-65.1000000015));
#590=CARTESIAN_POINT('',(-14.70849274504,0.,-65.10000000148));
#591=CARTESIAN_POINT('',(-14.7084927447,-4.970411546273E-5,-65.10000000149));
#592=CARTESIAN_POINT('',(-15.61546554337,0.,-30.46410620912));
#593=CARTESIAN_POINT('',(0.,0.,-30.46410620913));
#594=CARTESIAN_POINT('',(0.,0.,-47.78205310531));
#595=CARTESIAN_POINT('',(-16.01532847213,-0.0001987417593857,-30.47457698844));
#596=CARTESIAN_POINT('',(16.01532847209,0.0002013857828699,-30.47457698845));
#597=CARTESIAN_POINT('',(0.,0.,-30.47457698845));
#598=CARTESIAN_POINT('',(0.,0.,-30.46410620912));
#599=CARTESIAN_POINT('',(0.,0.,-30.47457698844));
#600=CARTESIAN_POINT('',(0.,0.,-65.10000000148));
#601=CARTESIAN_POINT('',(0.,0.,-47.7820531053));
#602=CARTESIAN_POINT('',(14.9,-3.631562281795E-14,-65.45117655439));
#603=CARTESIAN_POINT('',(14.49999999967,6.060351814847E-5,-65.45117655438));
#604=CARTESIAN_POINT('',(-14.9,0.,-65.45117655437));
#605=CARTESIAN_POINT('',(-14.5,0.,-65.45117655437));
#606=CARTESIAN_POINT('',(0.,0.,-65.45117655437));
#607=CARTESIAN_POINT('',(0.,0.,-65.45117655437));
#608=CARTESIAN_POINT('',(0.,0.,-65.45117655439));
#609=CARTESIAN_POINT('',(0.,0.,-65.45117655439));
#610=CARTESIAN_POINT('',(0.,0.,-303.5));
#611=CARTESIAN_POINT('',(-14.5,0.,-303.5));
#612=CARTESIAN_POINT('',(14.49999999999,1.633318669653E-5,-303.5));
#613=CARTESIAN_POINT('',(0.,0.,-303.5));
#614=CARTESIAN_POINT('',(0.,0.,-303.5));
#615=CARTESIAN_POINT('',(14.49999999999,1.633318669653E-5,-303.5));
#616=CARTESIAN_POINT('',(-14.5,0.,-303.5));
#617=CARTESIAN_POINT('',(0.,0.,-384.865));
#618=CARTESIAN_POINT('',(0.,0.,-384.865));
#619=MECHANICAL_DESIGN_GEOMETRIC_PRESENTATION_REPRESENTATION('',(#321,#322,
#323,#324,#325,#326,#327,#328,#329,#330,#331,#332,#333,#334),#620);
#620=(
GEOMETRIC_REPRESENTATION_CONTEXT(3)
GLOBAL_UNCERTAINTY_ASSIGNED_CONTEXT((#621))
GLOBAL_UNIT_ASSIGNED_CONTEXT((#627,#623,#622))
REPRESENTATION_CONTEXT('TAWLN0112_ID1_1719','TOP_LEVEL_ASSEMBLY_PART')
);
#621=UNCERTAINTY_MEASURE_WITH_UNIT(LENGTH_MEASURE(0.0508),#627,
'DISTANCE_ACCURACY_VALUE','Maximum Tolerance applied to model');
#622=(
NAMED_UNIT(*)
SI_UNIT($,.STERADIAN.)
SOLID_ANGLE_UNIT()
);
#623=(
CONVERSION_BASED_UNIT('DEGREE',#625)
NAMED_UNIT(#624)
PLANE_ANGLE_UNIT()
);
#624=DIMENSIONAL_EXPONENTS(0.,0.,0.,0.,0.,0.,0.);
#625=PLANE_ANGLE_MEASURE_WITH_UNIT(PLANE_ANGLE_MEASURE(0.0174532925),#626);
#626=(
NAMED_UNIT(*)
PLANE_ANGLE_UNIT()
SI_UNIT($,.RADIAN.)
);
#627=(
LENGTH_UNIT()
NAMED_UNIT(*)
SI_UNIT(.MILLI.,.METRE.)
);
ENDSEC;
END-ISO-10303-21;
