ISO-10303-21;
HEADER;
/* Generated by software containing ST-Developer
 * from STEP Tools, Inc. (www.steptools.com) 
 */
/* OPTION: using custom schema-name function */

FILE_DESCRIPTION(
/* description */ (''),
/* implementation_level */ '2;1');

FILE_NAME(
/* name */ 'TAWLN0054_ID0_8438.stp',
/* time_stamp */ '2025-06-11T17:03:18+09:00',
/* author */ (''),
/* organization */ (''),
/* preprocessor_version */ 'ST-DEVELOPER v18.101',
/* originating_system */ 'SIEMENS PLM Software NX 2011',
/* authorisation */ '');

FILE_SCHEMA (('AUTOMOTIVE_DESIGN { 1 0 10303 214 3 1 1 1 }'));
ENDSEC;

DATA;
#10=CONSTRUCTIVE_GEOMETRY_REPRESENTATION_RELATIONSHIP(
'supplemental geometry','',#26,#11);
#11=CONSTRUCTIVE_GEOMETRY_REPRESENTATION('supplemental geometry',(#359,
#360,#361,#362,#363,#364,#365),#607);
#12=GEOMETRICALLY_BOUNDED_WIREFRAME_SHAPE_REPRESENTATION(
'TAWLN0054_ID0_8438-None',(#27),#607);
#13=SHAPE_REPRESENTATION_RELATIONSHIP('None',
'relationship between TAWLN0054_ID0_8438-None and TAWLN0054_ID0_8438-N
one',#26,#15);
#14=SHAPE_REPRESENTATION_RELATIONSHIP('None',
'relationship between TAWLN0054_ID0_8438-None and TAWLN0054_ID0_8438-N
one',#26,#12);
#15=ADVANCED_BREP_SHAPE_REPRESENTATION('TAWLN0054_ID0_8438-None',(#42,#43),
#607);
#16=SHAPE_DEFINITION_REPRESENTATION(#17,#26);
#17=PRODUCT_DEFINITION_SHAPE('','SHAPE FOR TAWLN0054_ID0_8438_ASM.',#18);
#18=PRODUCT_DEFINITION('part definition','',#20,#19);
#19=PRODUCT_DEFINITION_CONTEXT('part definition',#25,'design');
#20=PRODUCT_DEFINITION_FORMATION_WITH_SPECIFIED_SOURCE(' ',' ',#22,
 .NOT_KNOWN.);
#21=PRODUCT_RELATED_PRODUCT_CATEGORY('part','',(#22));
#22=PRODUCT('TAWLN0054_ID0_8438_ASM','TAWLN0054_ID0_8438_ASM',
'NOT SPECIFIED',(#23));
#23=PRODUCT_CONTEXT('',#25,'mechanical');
#24=APPLICATION_PROTOCOL_DEFINITION('international standard',
'automotive_design',2010,#25);
#25=APPLICATION_CONTEXT(
'core data for automotive mechanical design processes');
#26=SHAPE_REPRESENTATION('TAWLN0054_ID0_8438-None',(#358),#607);
#27=GEOMETRIC_CURVE_SET('None',(#522,#285,#286,#287,#288));
#28=TOROIDAL_SURFACE('',#391,12.81809235968,0.4);
#29=TOROIDAL_SURFACE('',#393,12.81809235968,0.4);
#30=TOROIDAL_SURFACE('',#403,10.4,0.4);
#31=TOROIDAL_SURFACE('',#405,10.4,0.4);
#32=SURFACE_STYLE_USAGE(.BOTH.,#34);
#33=SURFACE_STYLE_USAGE(.BOTH.,#35);
#34=SURFACE_SIDE_STYLE('',(#36));
#35=SURFACE_SIDE_STYLE('',(#37));
#36=SURFACE_STYLE_FILL_AREA(#38);
#37=SURFACE_STYLE_FILL_AREA(#39);
#38=FILL_AREA_STYLE('',(#40));
#39=FILL_AREA_STYLE('',(#41));
#40=FILL_AREA_STYLE_COLOUR('',#356);
#41=FILL_AREA_STYLE_COLOUR('',#357);
#42=MANIFOLD_SOLID_BREP('CUT',#44);
#43=MANIFOLD_SOLID_BREP('NOCUT',#45);
#44=CLOSED_SHELL('',(#55,#56,#57,#58,#59));
#45=CLOSED_SHELL('',(#60,#61,#62,#63,#64,#65,#66,#67,#68,#69,#70,#71,#72,
#73));
#46=PLANE('',#374);
#47=PLANE('',#380);
#48=PLANE('',#398);
#49=CYLINDRICAL_SURFACE('',#371,10.71626);
#50=CYLINDRICAL_SURFACE('',#373,10.71626);
#51=CYLINDRICAL_SURFACE('',#377,12.7);
#52=CYLINDRICAL_SURFACE('',#385,12.7);
#53=CYLINDRICAL_SURFACE('',#400,10.);
#54=CYLINDRICAL_SURFACE('',#406,10.);
#55=ADVANCED_FACE('',(#80),#74,.T.);
#56=ADVANCED_FACE('',(#81),#75,.T.);
#57=ADVANCED_FACE('',(#82),#49,.T.);
#58=ADVANCED_FACE('',(#83),#50,.T.);
#59=ADVANCED_FACE('',(#84),#46,.T.);
#60=ADVANCED_FACE('',(#85),#51,.T.);
#61=ADVANCED_FACE('',(#86),#47,.T.);
#62=ADVANCED_FACE('',(#87),#76,.T.);
#63=ADVANCED_FACE('',(#88),#77,.T.);
#64=ADVANCED_FACE('',(#89),#52,.T.);
#65=ADVANCED_FACE('',(#90),#78,.T.);
#66=ADVANCED_FACE('',(#91),#28,.F.);
#67=ADVANCED_FACE('',(#92),#29,.F.);
#68=ADVANCED_FACE('',(#93),#79,.T.);
#69=ADVANCED_FACE('',(#94),#48,.F.);
#70=ADVANCED_FACE('',(#95),#53,.T.);
#71=ADVANCED_FACE('',(#96),#30,.F.);
#72=ADVANCED_FACE('',(#97),#31,.F.);
#73=ADVANCED_FACE('',(#98),#54,.T.);
#74=CONICAL_SURFACE('',#367,5.4652926,70.0000971436908);
#75=CONICAL_SURFACE('',#369,5.4652926,70.0000971436908);
#76=CONICAL_SURFACE('',#381,12.12264973081,30.0000416330103);
#77=CONICAL_SURFACE('',#383,12.12264973081,30.0000416330103);
#78=CONICAL_SURFACE('',#388,11.38494327789,5.00000693883505);
#79=CONICAL_SURFACE('',#395,11.38494327789,5.00000693883505);
#80=FACE_OUTER_BOUND('',#99,.T.);
#81=FACE_OUTER_BOUND('',#100,.T.);
#82=FACE_OUTER_BOUND('',#101,.T.);
#83=FACE_OUTER_BOUND('',#102,.T.);
#84=FACE_OUTER_BOUND('',#103,.T.);
#85=FACE_OUTER_BOUND('',#104,.T.);
#86=FACE_OUTER_BOUND('',#105,.T.);
#87=FACE_OUTER_BOUND('',#106,.T.);
#88=FACE_OUTER_BOUND('',#107,.T.);
#89=FACE_OUTER_BOUND('',#108,.T.);
#90=FACE_OUTER_BOUND('',#109,.T.);
#91=FACE_OUTER_BOUND('',#110,.T.);
#92=FACE_OUTER_BOUND('',#111,.T.);
#93=FACE_OUTER_BOUND('',#112,.T.);
#94=FACE_OUTER_BOUND('',#113,.T.);
#95=FACE_OUTER_BOUND('',#114,.T.);
#96=FACE_OUTER_BOUND('',#115,.T.);
#97=FACE_OUTER_BOUND('',#116,.T.);
#98=FACE_OUTER_BOUND('',#117,.T.);
#99=EDGE_LOOP('',(#118,#119,#120));
#100=EDGE_LOOP('',(#121,#122,#123));
#101=EDGE_LOOP('',(#124,#125,#126,#127));
#102=EDGE_LOOP('',(#128,#129,#130,#131));
#103=EDGE_LOOP('',(#132,#133));
#104=EDGE_LOOP('',(#134,#135,#136,#137));
#105=EDGE_LOOP('',(#138,#139));
#106=EDGE_LOOP('',(#140,#141,#142,#143));
#107=EDGE_LOOP('',(#144,#145,#146,#147));
#108=EDGE_LOOP('',(#148,#149,#150,#151));
#109=EDGE_LOOP('',(#152,#153,#154,#155));
#110=EDGE_LOOP('',(#156,#157,#158,#159));
#111=EDGE_LOOP('',(#160,#161,#162,#163));
#112=EDGE_LOOP('',(#164,#165,#166,#167));
#113=EDGE_LOOP('',(#168,#169));
#114=EDGE_LOOP('',(#170,#171,#172,#173));
#115=EDGE_LOOP('',(#174,#175,#176,#177));
#116=EDGE_LOOP('',(#178,#179,#180,#181));
#117=EDGE_LOOP('',(#182,#183,#184,#185));
#118=ORIENTED_EDGE('',*,*,#205,.T.);
#119=ORIENTED_EDGE('',*,*,#206,.F.);
#120=ORIENTED_EDGE('',*,*,#207,.T.);
#121=ORIENTED_EDGE('',*,*,#207,.F.);
#122=ORIENTED_EDGE('',*,*,#206,.T.);
#123=ORIENTED_EDGE('',*,*,#208,.T.);
#124=ORIENTED_EDGE('',*,*,#208,.F.);
#125=ORIENTED_EDGE('',*,*,#209,.F.);
#126=ORIENTED_EDGE('',*,*,#210,.F.);
#127=ORIENTED_EDGE('',*,*,#211,.T.);
#128=ORIENTED_EDGE('',*,*,#205,.F.);
#129=ORIENTED_EDGE('',*,*,#211,.F.);
#130=ORIENTED_EDGE('',*,*,#212,.F.);
#131=ORIENTED_EDGE('',*,*,#209,.T.);
#132=ORIENTED_EDGE('',*,*,#210,.T.);
#133=ORIENTED_EDGE('',*,*,#212,.T.);
#134=ORIENTED_EDGE('',*,*,#213,.T.);
#135=ORIENTED_EDGE('',*,*,#214,.F.);
#136=ORIENTED_EDGE('',*,*,#215,.F.);
#137=ORIENTED_EDGE('',*,*,#216,.F.);
#138=ORIENTED_EDGE('',*,*,#217,.T.);
#139=ORIENTED_EDGE('',*,*,#218,.T.);
#140=ORIENTED_EDGE('',*,*,#216,.T.);
#141=ORIENTED_EDGE('',*,*,#219,.T.);
#142=ORIENTED_EDGE('',*,*,#218,.F.);
#143=ORIENTED_EDGE('',*,*,#220,.F.);
#144=ORIENTED_EDGE('',*,*,#217,.F.);
#145=ORIENTED_EDGE('',*,*,#219,.F.);
#146=ORIENTED_EDGE('',*,*,#221,.T.);
#147=ORIENTED_EDGE('',*,*,#220,.T.);
#148=ORIENTED_EDGE('',*,*,#215,.T.);
#149=ORIENTED_EDGE('',*,*,#222,.F.);
#150=ORIENTED_EDGE('',*,*,#213,.F.);
#151=ORIENTED_EDGE('',*,*,#221,.F.);
#152=ORIENTED_EDGE('',*,*,#223,.F.);
#153=ORIENTED_EDGE('',*,*,#224,.F.);
#154=ORIENTED_EDGE('',*,*,#225,.T.);
#155=ORIENTED_EDGE('',*,*,#226,.F.);
#156=ORIENTED_EDGE('',*,*,#227,.T.);
#157=ORIENTED_EDGE('',*,*,#222,.T.);
#158=ORIENTED_EDGE('',*,*,#228,.F.);
#159=ORIENTED_EDGE('',*,*,#226,.T.);
#160=ORIENTED_EDGE('',*,*,#228,.T.);
#161=ORIENTED_EDGE('',*,*,#214,.T.);
#162=ORIENTED_EDGE('',*,*,#227,.F.);
#163=ORIENTED_EDGE('',*,*,#229,.T.);
#164=ORIENTED_EDGE('',*,*,#225,.F.);
#165=ORIENTED_EDGE('',*,*,#230,.F.);
#166=ORIENTED_EDGE('',*,*,#223,.T.);
#167=ORIENTED_EDGE('',*,*,#229,.F.);
#168=ORIENTED_EDGE('',*,*,#231,.T.);
#169=ORIENTED_EDGE('',*,*,#232,.T.);
#170=ORIENTED_EDGE('',*,*,#233,.T.);
#171=ORIENTED_EDGE('',*,*,#231,.F.);
#172=ORIENTED_EDGE('',*,*,#234,.F.);
#173=ORIENTED_EDGE('',*,*,#235,.F.);
#174=ORIENTED_EDGE('',*,*,#236,.F.);
#175=ORIENTED_EDGE('',*,*,#230,.T.);
#176=ORIENTED_EDGE('',*,*,#237,.T.);
#177=ORIENTED_EDGE('',*,*,#235,.T.);
#178=ORIENTED_EDGE('',*,*,#237,.F.);
#179=ORIENTED_EDGE('',*,*,#224,.T.);
#180=ORIENTED_EDGE('',*,*,#236,.T.);
#181=ORIENTED_EDGE('',*,*,#238,.T.);
#182=ORIENTED_EDGE('',*,*,#234,.T.);
#183=ORIENTED_EDGE('',*,*,#232,.F.);
#184=ORIENTED_EDGE('',*,*,#233,.F.);
#185=ORIENTED_EDGE('',*,*,#238,.F.);
#186=VERTEX_POINT('',#535);
#187=VERTEX_POINT('',#536);
#188=VERTEX_POINT('',#538);
#189=VERTEX_POINT('',#544);
#190=VERTEX_POINT('',#546);
#191=VERTEX_POINT('',#553);
#192=VERTEX_POINT('',#554);
#193=VERTEX_POINT('',#556);
#194=VERTEX_POINT('',#558);
#195=VERTEX_POINT('',#562);
#196=VERTEX_POINT('',#563);
#197=VERTEX_POINT('',#574);
#198=VERTEX_POINT('',#575);
#199=VERTEX_POINT('',#577);
#200=VERTEX_POINT('',#579);
#201=VERTEX_POINT('',#590);
#202=VERTEX_POINT('',#591);
#203=VERTEX_POINT('',#595);
#204=VERTEX_POINT('',#597);
#205=EDGE_CURVE('',#186,#187,#239,.T.);
#206=EDGE_CURVE('',#188,#187,#293,.T.);
#207=EDGE_CURVE('',#188,#186,#294,.T.);
#208=EDGE_CURVE('',#187,#186,#240,.T.);
#209=EDGE_CURVE('',#189,#187,#295,.T.);
#210=EDGE_CURVE('',#190,#189,#241,.T.);
#211=EDGE_CURVE('',#190,#186,#296,.T.);
#212=EDGE_CURVE('',#189,#190,#242,.T.);
#213=EDGE_CURVE('',#191,#192,#297,.T.);
#214=EDGE_CURVE('',#193,#192,#243,.T.);
#215=EDGE_CURVE('',#194,#193,#298,.T.);
#216=EDGE_CURVE('',#191,#194,#244,.T.);
#217=EDGE_CURVE('',#195,#196,#245,.T.);
#218=EDGE_CURVE('',#196,#195,#246,.T.);
#219=EDGE_CURVE('',#194,#195,#299,.T.);
#220=EDGE_CURVE('',#191,#196,#300,.T.);
#221=EDGE_CURVE('',#194,#191,#247,.T.);
#222=EDGE_CURVE('',#192,#193,#248,.T.);
#223=EDGE_CURVE('',#197,#198,#301,.T.);
#224=EDGE_CURVE('',#199,#197,#249,.T.);
#225=EDGE_CURVE('',#199,#200,#302,.T.);
#226=EDGE_CURVE('',#198,#200,#250,.T.);
#227=EDGE_CURVE('',#200,#192,#251,.T.);
#228=EDGE_CURVE('',#198,#193,#252,.T.);
#229=EDGE_CURVE('',#200,#198,#253,.T.);
#230=EDGE_CURVE('',#197,#199,#254,.T.);
#231=EDGE_CURVE('',#201,#202,#255,.T.);
#232=EDGE_CURVE('',#202,#201,#256,.T.);
#233=EDGE_CURVE('',#203,#202,#303,.T.);
#234=EDGE_CURVE('',#204,#201,#304,.T.);
#235=EDGE_CURVE('',#203,#204,#257,.T.);
#236=EDGE_CURVE('',#197,#204,#258,.T.);
#237=EDGE_CURVE('',#199,#203,#259,.T.);
#238=EDGE_CURVE('',#204,#203,#260,.T.);
#239=CIRCLE('',#366,10.71626);
#240=CIRCLE('',#368,10.71626);
#241=CIRCLE('',#370,10.71626);
#242=CIRCLE('',#372,10.71626);
#243=CIRCLE('',#375,12.7);
#244=CIRCLE('',#376,12.7);
#245=CIRCLE('',#378,11.54529946162);
#246=CIRCLE('',#379,11.54529946162);
#247=CIRCLE('',#382,12.7);
#248=CIRCLE('',#384,12.7);
#249=CIRCLE('',#386,10.35027207533);
#250=CIRCLE('',#387,12.41961448044);
#251=CIRCLE('',#389,0.4);
#252=CIRCLE('',#390,0.4);
#253=CIRCLE('',#392,12.41961448044);
#254=CIRCLE('',#394,10.35027207533);
#255=CIRCLE('',#396,10.);
#256=CIRCLE('',#397,10.);
#257=CIRCLE('',#399,10.);
#258=CIRCLE('',#401,0.4);
#259=CIRCLE('',#402,0.4);
#260=CIRCLE('',#404,10.);
#261=CURVE_STYLE('',#274,POSITIVE_LENGTH_MEASURE(0.13),#272);
#262=CURVE_STYLE('',#275,POSITIVE_LENGTH_MEASURE(0.13),#272);
#263=CURVE_STYLE('',#276,POSITIVE_LENGTH_MEASURE(0.13),#272);
#264=CURVE_STYLE('',#277,POSITIVE_LENGTH_MEASURE(0.13),#272);
#265=CURVE_STYLE('',#278,POSITIVE_LENGTH_MEASURE(0.13),#354);
#266=CURVE_STYLE('',#279,POSITIVE_LENGTH_MEASURE(0.13),#354);
#267=CURVE_STYLE('',#280,POSITIVE_LENGTH_MEASURE(0.13),#355);
#268=CURVE_STYLE('',#281,POSITIVE_LENGTH_MEASURE(0.13),#273);
#269=CURVE_STYLE('',#282,POSITIVE_LENGTH_MEASURE(0.13),#273);
#270=CURVE_STYLE('',#283,POSITIVE_LENGTH_MEASURE(0.13),#354);
#271=CURVE_STYLE('',#284,POSITIVE_LENGTH_MEASURE(0.13),#354);
#272=DRAUGHTING_PRE_DEFINED_COLOUR('blue');
#273=DRAUGHTING_PRE_DEFINED_COLOUR('yellow');
#274=DRAUGHTING_PRE_DEFINED_CURVE_FONT('continuous');
#275=DRAUGHTING_PRE_DEFINED_CURVE_FONT('continuous');
#276=DRAUGHTING_PRE_DEFINED_CURVE_FONT('continuous');
#277=DRAUGHTING_PRE_DEFINED_CURVE_FONT('continuous');
#278=DRAUGHTING_PRE_DEFINED_CURVE_FONT('continuous');
#279=DRAUGHTING_PRE_DEFINED_CURVE_FONT('continuous');
#280=DRAUGHTING_PRE_DEFINED_CURVE_FONT('continuous');
#281=DRAUGHTING_PRE_DEFINED_CURVE_FONT('continuous');
#282=DRAUGHTING_PRE_DEFINED_CURVE_FONT('continuous');
#283=DRAUGHTING_PRE_DEFINED_CURVE_FONT('continuous');
#284=DRAUGHTING_PRE_DEFINED_CURVE_FONT('continuous');
#285=TRIMMED_CURVE('',#289,(PARAMETER_VALUE(0.)),(PARAMETER_VALUE(1.)),
 .T.,.PARAMETER.);
#286=TRIMMED_CURVE('',#290,(PARAMETER_VALUE(0.)),(PARAMETER_VALUE(1.)),
 .T.,.PARAMETER.);
#287=TRIMMED_CURVE('',#291,(PARAMETER_VALUE(0.)),(PARAMETER_VALUE(1.)),
 .T.,.PARAMETER.);
#288=TRIMMED_CURVE('',#292,(PARAMETER_VALUE(0.)),(PARAMETER_VALUE(1.)),
 .T.,.PARAMETER.);
#289=LINE('',#523,#305);
#290=LINE('',#524,#306);
#291=LINE('',#525,#307);
#292=LINE('',#526,#308);
#293=LINE('',#537,#309);
#294=LINE('',#539,#310);
#295=LINE('',#543,#311);
#296=LINE('',#547,#312);
#297=LINE('',#552,#313);
#298=LINE('',#557,#314);
#299=LINE('',#566,#315);
#300=LINE('',#567,#316);
#301=LINE('',#573,#317);
#302=LINE('',#578,#318);
#303=LINE('',#594,#319);
#304=LINE('',#596,#320);
#305=VECTOR('',#409,10.71626);
#306=VECTOR('',#410,12.68879966266);
#307=VECTOR('',#411,11.40400569607);
#308=VECTOR('',#412,8.7884);
#309=VECTOR('',#429,1.);
#310=VECTOR('',#430,1.);
#311=VECTOR('',#437,1.);
#312=VECTOR('',#440,1.);
#313=VECTOR('',#449,1.);
#314=VECTOR('',#452,1.);
#315=VECTOR('',#463,1.);
#316=VECTOR('',#464,1.);
#317=VECTOR('',#475,1.);
#318=VECTOR('',#478,1.);
#319=VECTOR('',#503,1.);
#320=VECTOR('',#504,1.);
#321=PRESENTATION_LAYER_ASSIGNMENT('1','Layer 1',(#522,#359,#360,#361,#362,
#364,#365,#42,#43));
#322=PRESENTATION_LAYER_ASSIGNMENT('2','Layer 2',(#285,#286,#287,#288,#363));
#323=STYLED_ITEM('',(#337),#522);
#324=STYLED_ITEM('',(#338),#285);
#325=STYLED_ITEM('',(#339),#286);
#326=STYLED_ITEM('',(#340),#287);
#327=STYLED_ITEM('',(#341),#288);
#328=STYLED_ITEM('',(#342),#359);
#329=STYLED_ITEM('',(#343),#360);
#330=STYLED_ITEM('',(#344),#361);
#331=STYLED_ITEM('',(#345),#362);
#332=STYLED_ITEM('',(#346),#363);
#333=STYLED_ITEM('',(#347),#364);
#334=STYLED_ITEM('',(#348),#365);
#335=STYLED_ITEM('',(#349),#42);
#336=STYLED_ITEM('',(#350),#43);
#337=PRESENTATION_STYLE_ASSIGNMENT((#351));
#338=PRESENTATION_STYLE_ASSIGNMENT((#261));
#339=PRESENTATION_STYLE_ASSIGNMENT((#262));
#340=PRESENTATION_STYLE_ASSIGNMENT((#263));
#341=PRESENTATION_STYLE_ASSIGNMENT((#264));
#342=PRESENTATION_STYLE_ASSIGNMENT((#265));
#343=PRESENTATION_STYLE_ASSIGNMENT((#266));
#344=PRESENTATION_STYLE_ASSIGNMENT((#267));
#345=PRESENTATION_STYLE_ASSIGNMENT((#268));
#346=PRESENTATION_STYLE_ASSIGNMENT((#269));
#347=PRESENTATION_STYLE_ASSIGNMENT((#270));
#348=PRESENTATION_STYLE_ASSIGNMENT((#271));
#349=PRESENTATION_STYLE_ASSIGNMENT((#32));
#350=PRESENTATION_STYLE_ASSIGNMENT((#33));
#351=POINT_STYLE('',#352,POSITIVE_LENGTH_MEASURE(3.),#353);
#352=PRE_DEFINED_POINT_MARKER_SYMBOL('plus');
#353=COLOUR_RGB('Medium Royal',0.301960784313725,0.427450980392157,0.701960784313725);
#354=COLOUR_RGB('Medium Maroon',0.6,0.4,0.4);
#355=COLOUR_RGB('Strong Gold',0.611764705882353,0.556862745098039,0.380392156862745);
#356=COLOUR_RGB('light gray',0.8,0.8,0.8);
#357=COLOUR_RGB('medium gray',0.490196078431373,0.490196078431373,0.490196078431373);
#358=AXIS2_PLACEMENT_3D('',#521,#407,#408);
#359=AXIS2_PLACEMENT_3D('',#527,#413,#414);
#360=AXIS2_PLACEMENT_3D('',#528,#415,#416);
#361=AXIS2_PLACEMENT_3D('MCS',#529,#417,#418);
#362=AXIS2_PLACEMENT_3D('CIP',#530,#419,#420);
#363=AXIS2_PLACEMENT_3D('PCS',#531,#421,#422);
#364=AXIS2_PLACEMENT_3D('',#532,#423,#424);
#365=AXIS2_PLACEMENT_3D('',#533,#425,#426);
#366=AXIS2_PLACEMENT_3D('',#534,#427,#428);
#367=AXIS2_PLACEMENT_3D('',#540,#431,#432);
#368=AXIS2_PLACEMENT_3D('',#541,#433,#434);
#369=AXIS2_PLACEMENT_3D('',#542,#435,#436);
#370=AXIS2_PLACEMENT_3D('',#545,#438,#439);
#371=AXIS2_PLACEMENT_3D('',#548,#441,#442);
#372=AXIS2_PLACEMENT_3D('',#549,#443,#444);
#373=AXIS2_PLACEMENT_3D('',#550,#445,#446);
#374=AXIS2_PLACEMENT_3D('',#551,#447,#448);
#375=AXIS2_PLACEMENT_3D('',#555,#450,#451);
#376=AXIS2_PLACEMENT_3D('',#559,#453,#454);
#377=AXIS2_PLACEMENT_3D('',#560,#455,#456);
#378=AXIS2_PLACEMENT_3D('',#561,#457,#458);
#379=AXIS2_PLACEMENT_3D('',#564,#459,#460);
#380=AXIS2_PLACEMENT_3D('',#565,#461,#462);
#381=AXIS2_PLACEMENT_3D('',#568,#465,#466);
#382=AXIS2_PLACEMENT_3D('',#569,#467,#468);
#383=AXIS2_PLACEMENT_3D('',#570,#469,#470);
#384=AXIS2_PLACEMENT_3D('',#571,#471,#472);
#385=AXIS2_PLACEMENT_3D('',#572,#473,#474);
#386=AXIS2_PLACEMENT_3D('',#576,#476,#477);
#387=AXIS2_PLACEMENT_3D('',#580,#479,#480);
#388=AXIS2_PLACEMENT_3D('',#581,#481,#482);
#389=AXIS2_PLACEMENT_3D('',#582,#483,#484);
#390=AXIS2_PLACEMENT_3D('',#583,#485,#486);
#391=AXIS2_PLACEMENT_3D('',#584,#487,#488);
#392=AXIS2_PLACEMENT_3D('',#585,#489,#490);
#393=AXIS2_PLACEMENT_3D('',#586,#491,#492);
#394=AXIS2_PLACEMENT_3D('',#587,#493,#494);
#395=AXIS2_PLACEMENT_3D('',#588,#495,#496);
#396=AXIS2_PLACEMENT_3D('',#589,#497,#498);
#397=AXIS2_PLACEMENT_3D('',#592,#499,#500);
#398=AXIS2_PLACEMENT_3D('',#593,#501,#502);
#399=AXIS2_PLACEMENT_3D('',#598,#505,#506);
#400=AXIS2_PLACEMENT_3D('',#599,#507,#508);
#401=AXIS2_PLACEMENT_3D('',#600,#509,#510);
#402=AXIS2_PLACEMENT_3D('',#601,#511,#512);
#403=AXIS2_PLACEMENT_3D('',#602,#513,#514);
#404=AXIS2_PLACEMENT_3D('',#603,#515,#516);
#405=AXIS2_PLACEMENT_3D('',#604,#517,#518);
#406=AXIS2_PLACEMENT_3D('',#605,#519,#520);
#407=DIRECTION('',(0.,0.,1.));
#408=DIRECTION('',(1.,0.,0.));
#409=DIRECTION('',(1.,0.,0.));
#410=DIRECTION('',(0.,0.,-1.));
#411=DIRECTION('',(-0.939692620785898,0.,0.342020143325698));
#412=DIRECTION('',(0.,0.,1.));
#413=DIRECTION('',(0.,0.,1.));
#414=DIRECTION('',(1.,0.,0.));
#415=DIRECTION('',(0.,0.,1.));
#416=DIRECTION('',(1.,0.,0.));
#417=DIRECTION('',(0.,0.,1.));
#418=DIRECTION('',(1.,0.,0.));
#419=DIRECTION('',(0.,0.,1.));
#420=DIRECTION('',(1.,0.,0.));
#421=DIRECTION('',(0.,0.,1.));
#422=DIRECTION('',(1.,0.,0.));
#423=DIRECTION('',(0.,0.,1.));
#424=DIRECTION('',(1.,0.,0.));
#425=DIRECTION('',(0.,0.,1.));
#426=DIRECTION('',(1.,0.,0.));
#427=DIRECTION('',(0.,0.,-1.));
#428=DIRECTION('',(1.,0.,0.));
#429=DIRECTION('',(-0.93969262078593,0.,0.342020143325611));
#430=DIRECTION('',(0.93969262078593,0.,0.342020143325611));
#431=DIRECTION('',(0.,0.,1.));
#432=DIRECTION('',(1.,0.,0.));
#433=DIRECTION('',(0.,0.,-1.));
#434=DIRECTION('',(-1.,0.,0.));
#435=DIRECTION('',(0.,0.,1.));
#436=DIRECTION('',(1.,0.,0.));
#437=DIRECTION('',(3.921228287785E-14,0.,-1.));
#438=DIRECTION('',(0.,0.,1.));
#439=DIRECTION('',(1.,0.,0.));
#440=DIRECTION('',(-3.921228287785E-14,0.,-1.));
#441=DIRECTION('',(0.,0.,-1.));
#442=DIRECTION('',(-1.,0.,0.));
#443=DIRECTION('',(0.,0.,1.));
#444=DIRECTION('',(-1.,0.,0.));
#445=DIRECTION('',(0.,0.,-1.));
#446=DIRECTION('',(-1.,0.,0.));
#447=DIRECTION('',(0.,0.,1.));
#448=DIRECTION('',(-1.,0.,0.));
#449=DIRECTION('',(-6.89100950200502E-12,8.90512542474103E-7,-0.999999999999604));
#450=DIRECTION('',(0.,0.,-1.));
#451=DIRECTION('',(-1.,0.,0.));
#452=DIRECTION('',(7.07601449239495E-12,-9.02383453147094E-7,-0.999999999999593));
#453=DIRECTION('',(0.,0.,1.));
#454=DIRECTION('',(0.999999999998077,1.96108530024896E-6,0.));
#455=DIRECTION('',(0.,0.,1.));
#456=DIRECTION('',(-1.,0.,0.));
#457=DIRECTION('',(0.,0.,1.));
#458=DIRECTION('',(-1.,0.,0.));
#459=DIRECTION('',(0.,0.,1.));
#460=DIRECTION('',(1.,0.,0.));
#461=DIRECTION('',(0.,0.,1.));
#462=DIRECTION('',(-1.,0.,0.));
#463=DIRECTION('',(0.500000000000092,0.,0.866025403784386));
#464=DIRECTION('',(-0.499999999988883,-5.39226026234881E-6,0.86602540377407));
#465=DIRECTION('',(0.,0.,-1.));
#466=DIRECTION('',(1.,0.,-7.65136697511846E-17));
#467=DIRECTION('',(0.,0.,1.));
#468=DIRECTION('',(-1.,0.,0.));
#469=DIRECTION('',(0.,0.,-1.));
#470=DIRECTION('',(1.,0.,-7.65136697511846E-17));
#471=DIRECTION('',(0.,0.,-1.));
#472=DIRECTION('',(0.999999999998077,1.96108530024896E-6,0.));
#473=DIRECTION('',(0.,0.,1.));
#474=DIRECTION('',(-1.,0.,0.));
#475=DIRECTION('',(-0.0871557427715166,2.13959643018692E-6,0.996194698087361));
#476=DIRECTION('',(0.,0.,-1.));
#477=DIRECTION('',(0.999999999990567,4.34346937869486E-6,0.));
#478=DIRECTION('',(0.0871557427715593,-1.97730655162998E-6,0.996194698087692));
#479=DIRECTION('',(0.,0.,1.));
#480=DIRECTION('',(-1.,0.,0.));
#481=DIRECTION('',(0.,0.,1.));
#482=DIRECTION('',(-1.,0.,0.));
#483=DIRECTION('',(0.,1.,0.));
#484=DIRECTION('',(-0.295230899199999,0.,0.955425934417503));
#485=DIRECTION('',(0.,-1.,0.));
#486=DIRECTION('',(0.295230899199999,0.,0.955425934417503));
#487=DIRECTION('',(0.,0.,1.));
#488=DIRECTION('',(0.999999999880149,1.54822968050508E-5,0.));
#489=DIRECTION('',(0.,0.,1.));
#490=DIRECTION('',(0.999999999990567,4.34346937869486E-6,0.));
#491=DIRECTION('',(0.,0.,1.));
#492=DIRECTION('',(-0.999999999876933,-1.56886824027705E-5,0.));
#493=DIRECTION('',(0.,0.,-1.));
#494=DIRECTION('',(-1.,0.,0.));
#495=DIRECTION('',(0.,0.,1.));
#496=DIRECTION('',(-1.,0.,2.10538046422678E-16));
#497=DIRECTION('',(0.,0.,-1.));
#498=DIRECTION('',(-1.,0.,0.));
#499=DIRECTION('',(0.,0.,-1.));
#500=DIRECTION('',(1.,0.,0.));
#501=DIRECTION('',(0.,0.,1.));
#502=DIRECTION('',(0.,-1.,0.));
#503=DIRECTION('',(5.44742222781773E-12,-5.45678852667873E-7,-0.999999999999851));
#504=DIRECTION('',(-5.47631906555921E-12,5.69567095741322E-7,-0.999999999999838));
#505=DIRECTION('',(0.,0.,1.));
#506=DIRECTION('',(0.999999999997073,2.41944573518794E-6,0.));
#507=DIRECTION('',(0.,0.,1.));
#508=DIRECTION('',(-1.,0.,0.));
#509=DIRECTION('',(-1.91023113994491E-5,0.999999999817551,0.));
#510=DIRECTION('',(0.124319811653701,2.37479575576207E-6,0.992242200485716));
#511=DIRECTION('',(1.93555658788196E-5,-0.999999999812681,0.));
#512=DIRECTION('',(-0.124319811653103,-2.40628030494406E-6,0.992242200485716));
#513=DIRECTION('',(0.,0.,1.));
#514=DIRECTION('',(-0.999999999812681,-1.93555658789396E-5,0.));
#515=DIRECTION('',(0.,0.,1.));
#516=DIRECTION('',(-1.,0.,0.));
#517=DIRECTION('',(0.,0.,1.));
#518=DIRECTION('',(0.999999999817551,1.91023113995691E-5,0.));
#519=DIRECTION('',(0.,0.,1.));
#520=DIRECTION('',(-1.,0.,0.));
#521=CARTESIAN_POINT('',(0.,0.,0.));
#522=CARTESIAN_POINT('',(-10.71626,0.,-230.5379533591));
#523=CARTESIAN_POINT('',(-10.71626,0.,-221.7495533591));
#524=CARTESIAN_POINT('',(0.,0.,-221.7495533591));
#525=CARTESIAN_POINT('',(0.,0.,-234.4383530218));
#526=CARTESIAN_POINT('',(-10.71626,0.,-230.5379533591));
#527=CARTESIAN_POINT('',(0.,0.,-28.55));
#528=CARTESIAN_POINT('',(0.,0.,-28.55));
#529=CARTESIAN_POINT('',(0.,0.,-28.55));
#530=CARTESIAN_POINT('',(0.,0.,-234.438353022));
#531=CARTESIAN_POINT('',(0.,0.,0.));
#532=CARTESIAN_POINT('',(0.,0.,-28.55));
#533=CARTESIAN_POINT('',(0.,0.,-28.55));
#534=CARTESIAN_POINT('',(0.,0.,-230.5379533591));
#535=CARTESIAN_POINT('',(10.71626,0.,-230.5379533591));
#536=CARTESIAN_POINT('',(-10.71626,0.,-230.5379533591));
#537=CARTESIAN_POINT('',(0.,0.,-234.4383530218));
#538=CARTESIAN_POINT('',(0.,0.,-234.4383530218));
#539=CARTESIAN_POINT('',(0.,0.,-234.4383530218));
#540=CARTESIAN_POINT('',(0.,0.,-232.4491491938));
#541=CARTESIAN_POINT('',(0.,0.,-230.5379533591));
#542=CARTESIAN_POINT('',(0.,0.,-232.4491491938));
#543=CARTESIAN_POINT('',(-10.71626,0.,-221.7495533591));
#544=CARTESIAN_POINT('',(-10.71626,0.,-221.7495533591));
#545=CARTESIAN_POINT('',(0.,0.,-221.7495533591));
#546=CARTESIAN_POINT('',(10.71626,0.,-221.7495533591));
#547=CARTESIAN_POINT('',(10.71626,0.,-221.7495533591));
#548=CARTESIAN_POINT('',(0.,0.,-18.25558234891));
#549=CARTESIAN_POINT('',(0.,0.,-221.7495533591));
#550=CARTESIAN_POINT('',(0.,0.,-18.25558234891));
#551=CARTESIAN_POINT('',(0.,0.,-221.7495533591));
#552=CARTESIAN_POINT('',(12.69999999961,6.160918400296E-5,-28.550000001133));
#553=CARTESIAN_POINT('',(12.69999999998,2.490578330752E-5,26.65));
#554=CARTESIAN_POINT('',(12.69999999998,2.490578331316E-5,-28.550000001143));
#555=CARTESIAN_POINT('',(0.,0.,-28.550000001143));
#556=CARTESIAN_POINT('',(-12.7,4.991265784722E-14,-28.550000001123));
#557=CARTESIAN_POINT('',(-12.69999999961,-4.981156661476E-5,-28.550000001133));
#558=CARTESIAN_POINT('',(-12.7,0.,26.65));
#559=CARTESIAN_POINT('',(0.,0.,26.65));
#560=CARTESIAN_POINT('',(0.,0.,-286.56));
#561=CARTESIAN_POINT('',(0.,0.,28.65));
#562=CARTESIAN_POINT('',(-11.54529946162,0.,28.65));
#563=CARTESIAN_POINT('',(11.54529946162,0.,28.65));
#564=CARTESIAN_POINT('',(0.,0.,28.65));
#565=CARTESIAN_POINT('',(0.,0.,28.65));
#566=CARTESIAN_POINT('',(-11.54529946162,0.,28.65));
#567=CARTESIAN_POINT('',(11.54529946162,0.,28.65));
#568=CARTESIAN_POINT('',(0.,0.,27.65));
#569=CARTESIAN_POINT('',(0.,0.,26.65));
#570=CARTESIAN_POINT('',(0.,0.,27.65));
#571=CARTESIAN_POINT('',(0.,0.,-28.550000001123));
#572=CARTESIAN_POINT('',(0.,0.,-286.56));
#573=CARTESIAN_POINT('',(-10.35027207437,-9.951237331646E-5,-52.55000000055));
#574=CARTESIAN_POINT('',(-10.35027207344,-0.0001977141202519,-52.55000000055));
#575=CARTESIAN_POINT('',(-12.41961448044,0.,-28.8973080777912));
#576=CARTESIAN_POINT('',(0.,0.,-52.55000000055));
#577=CARTESIAN_POINT('',(10.35027207523,4.495608982036E-5,-52.55000000056));
#578=CARTESIAN_POINT('',(10.35027207433,0.0001219904182273,-52.55000000055));
#579=CARTESIAN_POINT('',(12.41961448033,5.394421518549E-5,-28.8973080777912));
#580=CARTESIAN_POINT('',(0.,0.,-28.8973080777912));
#581=CARTESIAN_POINT('',(0.,0.,-40.72365403917));
#582=CARTESIAN_POINT('',(12.81809235968,-3.586708837919E-14,-28.93217037491));
#583=CARTESIAN_POINT('',(-12.81809235968,5.037677631818E-14,-28.93217037489));
#584=CARTESIAN_POINT('',(0.,0.,-28.93217037489));
#585=CARTESIAN_POINT('',(0.,0.,-28.8973080778112));
#586=CARTESIAN_POINT('',(0.,0.,-28.93217037491));
#587=CARTESIAN_POINT('',(0.,0.,-52.55000000056));
#588=CARTESIAN_POINT('',(0.,0.,-40.72365403919));
#589=CARTESIAN_POINT('',(0.,0.,-221.75));
#590=CARTESIAN_POINT('',(-10.,0.,-221.75));
#591=CARTESIAN_POINT('',(10.,0.,-221.75));
#592=CARTESIAN_POINT('',(0.,0.,-221.75));
#593=CARTESIAN_POINT('',(0.,0.,-221.75));
#594=CARTESIAN_POINT('',(9.99999999998,1.612963823439E-5,-221.75));
#595=CARTESIAN_POINT('',(9.999999999971,2.419445734744E-5,-52.94689688074));
#596=CARTESIAN_POINT('',(-10.,0.,-221.75));
#597=CARTESIAN_POINT('',(-10.,0.,-52.94689688074));
#598=CARTESIAN_POINT('',(0.,0.,-52.94689688075));
#599=CARTESIAN_POINT('',(0.,0.,-286.56));
#600=CARTESIAN_POINT('',(-10.3999999981,-0.0001986640385542,-52.94689688074));
#601=CARTESIAN_POINT('',(10.39999999805,0.0002012978851397,-52.94689688075));
#602=CARTESIAN_POINT('',(0.,0.,-52.94689688075));
#603=CARTESIAN_POINT('',(0.,0.,-52.94689688074));
#604=CARTESIAN_POINT('',(0.,0.,-52.94689688074));
#605=CARTESIAN_POINT('',(0.,0.,-286.56));
#606=MECHANICAL_DESIGN_GEOMETRIC_PRESENTATION_REPRESENTATION('',(#323,#324,
#325,#326,#327,#328,#329,#330,#331,#332,#333,#334,#335,#336),#607);
#607=(
GEOMETRIC_REPRESENTATION_CONTEXT(3)
GLOBAL_UNCERTAINTY_ASSIGNED_CONTEXT((#608))
GLOBAL_UNIT_ASSIGNED_CONTEXT((#614,#610,#609))
REPRESENTATION_CONTEXT('TAWLN0054_ID0_8438','TOP_LEVEL_ASSEMBLY_PART')
);
#608=UNCERTAINTY_MEASURE_WITH_UNIT(LENGTH_MEASURE(0.001),#614,
'DISTANCE_ACCURACY_VALUE','Maximum Tolerance applied to model');
#609=(
NAMED_UNIT(*)
SI_UNIT($,.STERADIAN.)
SOLID_ANGLE_UNIT()
);
#610=(
CONVERSION_BASED_UNIT('DEGREE',#612)
NAMED_UNIT(#611)
PLANE_ANGLE_UNIT()
);
#611=DIMENSIONAL_EXPONENTS(0.,0.,0.,0.,0.,0.,0.);
#612=PLANE_ANGLE_MEASURE_WITH_UNIT(PLANE_ANGLE_MEASURE(0.0174532925),#613);
#613=(
NAMED_UNIT(*)
PLANE_ANGLE_UNIT()
SI_UNIT($,.RADIAN.)
);
#614=(
LENGTH_UNIT()
NAMED_UNIT(*)
SI_UNIT(.MILLI.,.METRE.)
);
ENDSEC;
END-ISO-10303-21;
