ISO-10303-21;
HEADER;
/* Generated by software containing ST-Developer
 * from STEP Tools, Inc. (www.steptools.com) 
 */
/* OPTION: using custom schema-name function */

FILE_DESCRIPTION(
/* description */ (''),
/* implementation_level */ '2;1');

FILE_NAME(
/* name */ 'TAWSN0054_ID0_8438.stp',
/* time_stamp */ '2025-06-11T17:03:15+09:00',
/* author */ (''),
/* organization */ (''),
/* preprocessor_version */ 'ST-DEVELOPER v18.101',
/* originating_system */ 'SIEMENS PLM Software NX 2011',
/* authorisation */ '');

FILE_SCHEMA (('AUTOMOTIVE_DESIGN { 1 0 10303 214 3 1 1 1 }'));
ENDSEC;

DATA;
#10=CONSTRUCTIVE_GEOMETRY_REPRESENTATION_RELATIONSHIP(
'supplemental geometry','',#26,#11);
#11=CONSTRUCTIVE_GEOMETRY_REPRESENTATION('supplemental geometry',(#359,
#360,#361,#362,#363,#364,#365),#607);
#12=GEOMETRICALLY_BOUNDED_WIREFRAME_SHAPE_REPRESENTATION(
'TAWSN0054_ID0_8438-None',(#27),#607);
#13=SHAPE_REPRESENTATION_RELATIONSHIP('None',
'relationship between TAWSN0054_ID0_8438-None and TAWSN0054_ID0_8438-N
one',#26,#15);
#14=SHAPE_REPRESENTATION_RELATIONSHIP('None',
'relationship between TAWSN0054_ID0_8438-None and TAWSN0054_ID0_8438-N
one',#26,#12);
#15=ADVANCED_BREP_SHAPE_REPRESENTATION('TAWSN0054_ID0_8438-None',(#42,#43),
#607);
#16=SHAPE_DEFINITION_REPRESENTATION(#17,#26);
#17=PRODUCT_DEFINITION_SHAPE('','SHAPE FOR TAWSN0054_ID0_8438_ASM.',#18);
#18=PRODUCT_DEFINITION('part definition','',#20,#19);
#19=PRODUCT_DEFINITION_CONTEXT('part definition',#25,'design');
#20=PRODUCT_DEFINITION_FORMATION_WITH_SPECIFIED_SOURCE(' ',' ',#22,
 .NOT_KNOWN.);
#21=PRODUCT_RELATED_PRODUCT_CATEGORY('part','',(#22));
#22=PRODUCT('TAWSN0054_ID0_8438_ASM','TAWSN0054_ID0_8438_ASM',
'NOT SPECIFIED',(#23));
#23=PRODUCT_CONTEXT('',#25,'mechanical');
#24=APPLICATION_PROTOCOL_DEFINITION('international standard',
'automotive_design',2010,#25);
#25=APPLICATION_CONTEXT(
'core data for automotive mechanical design processes');
#26=SHAPE_REPRESENTATION('TAWSN0054_ID0_8438-None',(#358),#607);
#27=GEOMETRIC_CURVE_SET('None',(#522,#285,#286,#287,#288));
#28=TOROIDAL_SURFACE('',#391,12.81809235964,0.4);
#29=TOROIDAL_SURFACE('',#393,12.81809235964,0.4);
#30=TOROIDAL_SURFACE('',#403,10.4,0.4);
#31=TOROIDAL_SURFACE('',#405,10.4,0.4);
#32=SURFACE_STYLE_USAGE(.BOTH.,#34);
#33=SURFACE_STYLE_USAGE(.BOTH.,#35);
#34=SURFACE_SIDE_STYLE('',(#36));
#35=SURFACE_SIDE_STYLE('',(#37));
#36=SURFACE_STYLE_FILL_AREA(#38);
#37=SURFACE_STYLE_FILL_AREA(#39);
#38=FILL_AREA_STYLE('',(#40));
#39=FILL_AREA_STYLE('',(#41));
#40=FILL_AREA_STYLE_COLOUR('',#356);
#41=FILL_AREA_STYLE_COLOUR('',#357);
#42=MANIFOLD_SOLID_BREP('CUT',#44);
#43=MANIFOLD_SOLID_BREP('NOCUT',#45);
#44=CLOSED_SHELL('',(#55,#56,#57,#58,#59));
#45=CLOSED_SHELL('',(#60,#61,#62,#63,#64,#65,#66,#67,#68,#69,#70,#71,#72,
#73));
#46=PLANE('',#374);
#47=PLANE('',#380);
#48=PLANE('',#398);
#49=CONICAL_SURFACE('',#369,5.4652926,70.0000971436908);
#50=CONICAL_SURFACE('',#371,5.4652926,70.0000971436908);
#51=CONICAL_SURFACE('',#381,12.12264973081,30.0000416330103);
#52=CONICAL_SURFACE('',#383,12.12264973081,30.0000416330103);
#53=CONICAL_SURFACE('',#388,11.38494327786,5.00000693883505);
#54=CONICAL_SURFACE('',#395,11.38494327786,5.00000693883505);
#55=ADVANCED_FACE('',(#80),#74,.T.);
#56=ADVANCED_FACE('',(#81),#49,.T.);
#57=ADVANCED_FACE('',(#82),#50,.T.);
#58=ADVANCED_FACE('',(#83),#75,.T.);
#59=ADVANCED_FACE('',(#84),#46,.T.);
#60=ADVANCED_FACE('',(#85),#76,.T.);
#61=ADVANCED_FACE('',(#86),#47,.T.);
#62=ADVANCED_FACE('',(#87),#51,.T.);
#63=ADVANCED_FACE('',(#88),#52,.T.);
#64=ADVANCED_FACE('',(#89),#77,.T.);
#65=ADVANCED_FACE('',(#90),#53,.T.);
#66=ADVANCED_FACE('',(#91),#28,.F.);
#67=ADVANCED_FACE('',(#92),#29,.F.);
#68=ADVANCED_FACE('',(#93),#54,.T.);
#69=ADVANCED_FACE('',(#94),#48,.F.);
#70=ADVANCED_FACE('',(#95),#78,.T.);
#71=ADVANCED_FACE('',(#96),#30,.F.);
#72=ADVANCED_FACE('',(#97),#31,.F.);
#73=ADVANCED_FACE('',(#98),#79,.T.);
#74=CYLINDRICAL_SURFACE('',#368,10.71626);
#75=CYLINDRICAL_SURFACE('',#373,10.71626);
#76=CYLINDRICAL_SURFACE('',#377,12.7);
#77=CYLINDRICAL_SURFACE('',#385,12.7);
#78=CYLINDRICAL_SURFACE('',#400,10.);
#79=CYLINDRICAL_SURFACE('',#406,10.);
#80=FACE_OUTER_BOUND('',#99,.T.);
#81=FACE_OUTER_BOUND('',#100,.T.);
#82=FACE_OUTER_BOUND('',#101,.T.);
#83=FACE_OUTER_BOUND('',#102,.T.);
#84=FACE_OUTER_BOUND('',#103,.T.);
#85=FACE_OUTER_BOUND('',#104,.T.);
#86=FACE_OUTER_BOUND('',#105,.T.);
#87=FACE_OUTER_BOUND('',#106,.T.);
#88=FACE_OUTER_BOUND('',#107,.T.);
#89=FACE_OUTER_BOUND('',#108,.T.);
#90=FACE_OUTER_BOUND('',#109,.T.);
#91=FACE_OUTER_BOUND('',#110,.T.);
#92=FACE_OUTER_BOUND('',#111,.T.);
#93=FACE_OUTER_BOUND('',#112,.T.);
#94=FACE_OUTER_BOUND('',#113,.T.);
#95=FACE_OUTER_BOUND('',#114,.T.);
#96=FACE_OUTER_BOUND('',#115,.T.);
#97=FACE_OUTER_BOUND('',#116,.T.);
#98=FACE_OUTER_BOUND('',#117,.T.);
#99=EDGE_LOOP('',(#140,#141,#142,#143));
#100=EDGE_LOOP('',(#144,#145,#146));
#101=EDGE_LOOP('',(#147,#148,#149));
#102=EDGE_LOOP('',(#150,#151,#152,#153));
#103=EDGE_LOOP('',(#154,#155));
#104=EDGE_LOOP('',(#156,#157,#158,#159));
#105=EDGE_LOOP('',(#160,#161));
#106=EDGE_LOOP('',(#162,#163,#164,#165));
#107=EDGE_LOOP('',(#166,#167,#168,#169));
#108=EDGE_LOOP('',(#170,#171,#172,#173));
#109=EDGE_LOOP('',(#174,#175,#176,#177));
#110=EDGE_LOOP('',(#178,#179,#180,#181));
#111=EDGE_LOOP('',(#182,#183,#184,#185));
#112=EDGE_LOOP('',(#186,#187,#188,#189));
#113=EDGE_LOOP('',(#190,#191));
#114=EDGE_LOOP('',(#192,#193,#194,#195));
#115=EDGE_LOOP('',(#196,#197,#198,#199));
#116=EDGE_LOOP('',(#200,#201,#202,#203));
#117=EDGE_LOOP('',(#204,#205,#206,#207));
#118=CIRCLE('',#366,10.71626);
#119=CIRCLE('',#367,10.71626);
#120=CIRCLE('',#370,10.71626);
#121=CIRCLE('',#372,10.71626);
#122=CIRCLE('',#375,12.7);
#123=CIRCLE('',#376,12.7);
#124=CIRCLE('',#378,11.54529946162);
#125=CIRCLE('',#379,11.54529946162);
#126=CIRCLE('',#382,12.7);
#127=CIRCLE('',#384,12.7);
#128=CIRCLE('',#386,10.35027207531);
#129=CIRCLE('',#387,12.4196144804);
#130=CIRCLE('',#389,0.4);
#131=CIRCLE('',#390,0.4);
#132=CIRCLE('',#392,12.4196144804);
#133=CIRCLE('',#394,10.35027207531);
#134=CIRCLE('',#396,10.);
#135=CIRCLE('',#397,10.);
#136=CIRCLE('',#399,10.);
#137=CIRCLE('',#401,0.4);
#138=CIRCLE('',#402,0.4);
#139=CIRCLE('',#404,10.);
#140=ORIENTED_EDGE('',*,*,#227,.T.);
#141=ORIENTED_EDGE('',*,*,#228,.F.);
#142=ORIENTED_EDGE('',*,*,#229,.F.);
#143=ORIENTED_EDGE('',*,*,#230,.F.);
#144=ORIENTED_EDGE('',*,*,#231,.T.);
#145=ORIENTED_EDGE('',*,*,#232,.F.);
#146=ORIENTED_EDGE('',*,*,#228,.T.);
#147=ORIENTED_EDGE('',*,*,#233,.T.);
#148=ORIENTED_EDGE('',*,*,#232,.T.);
#149=ORIENTED_EDGE('',*,*,#231,.F.);
#150=ORIENTED_EDGE('',*,*,#227,.F.);
#151=ORIENTED_EDGE('',*,*,#234,.F.);
#152=ORIENTED_EDGE('',*,*,#229,.T.);
#153=ORIENTED_EDGE('',*,*,#233,.F.);
#154=ORIENTED_EDGE('',*,*,#230,.T.);
#155=ORIENTED_EDGE('',*,*,#234,.T.);
#156=ORIENTED_EDGE('',*,*,#235,.T.);
#157=ORIENTED_EDGE('',*,*,#236,.F.);
#158=ORIENTED_EDGE('',*,*,#237,.F.);
#159=ORIENTED_EDGE('',*,*,#238,.F.);
#160=ORIENTED_EDGE('',*,*,#239,.T.);
#161=ORIENTED_EDGE('',*,*,#240,.T.);
#162=ORIENTED_EDGE('',*,*,#238,.T.);
#163=ORIENTED_EDGE('',*,*,#241,.T.);
#164=ORIENTED_EDGE('',*,*,#240,.F.);
#165=ORIENTED_EDGE('',*,*,#242,.F.);
#166=ORIENTED_EDGE('',*,*,#239,.F.);
#167=ORIENTED_EDGE('',*,*,#241,.F.);
#168=ORIENTED_EDGE('',*,*,#243,.T.);
#169=ORIENTED_EDGE('',*,*,#242,.T.);
#170=ORIENTED_EDGE('',*,*,#237,.T.);
#171=ORIENTED_EDGE('',*,*,#244,.F.);
#172=ORIENTED_EDGE('',*,*,#235,.F.);
#173=ORIENTED_EDGE('',*,*,#243,.F.);
#174=ORIENTED_EDGE('',*,*,#245,.F.);
#175=ORIENTED_EDGE('',*,*,#246,.F.);
#176=ORIENTED_EDGE('',*,*,#247,.T.);
#177=ORIENTED_EDGE('',*,*,#248,.F.);
#178=ORIENTED_EDGE('',*,*,#249,.T.);
#179=ORIENTED_EDGE('',*,*,#244,.T.);
#180=ORIENTED_EDGE('',*,*,#250,.F.);
#181=ORIENTED_EDGE('',*,*,#248,.T.);
#182=ORIENTED_EDGE('',*,*,#250,.T.);
#183=ORIENTED_EDGE('',*,*,#236,.T.);
#184=ORIENTED_EDGE('',*,*,#249,.F.);
#185=ORIENTED_EDGE('',*,*,#251,.T.);
#186=ORIENTED_EDGE('',*,*,#247,.F.);
#187=ORIENTED_EDGE('',*,*,#252,.F.);
#188=ORIENTED_EDGE('',*,*,#245,.T.);
#189=ORIENTED_EDGE('',*,*,#251,.F.);
#190=ORIENTED_EDGE('',*,*,#253,.T.);
#191=ORIENTED_EDGE('',*,*,#254,.T.);
#192=ORIENTED_EDGE('',*,*,#255,.T.);
#193=ORIENTED_EDGE('',*,*,#253,.F.);
#194=ORIENTED_EDGE('',*,*,#256,.F.);
#195=ORIENTED_EDGE('',*,*,#257,.F.);
#196=ORIENTED_EDGE('',*,*,#258,.F.);
#197=ORIENTED_EDGE('',*,*,#252,.T.);
#198=ORIENTED_EDGE('',*,*,#259,.T.);
#199=ORIENTED_EDGE('',*,*,#257,.T.);
#200=ORIENTED_EDGE('',*,*,#259,.F.);
#201=ORIENTED_EDGE('',*,*,#246,.T.);
#202=ORIENTED_EDGE('',*,*,#258,.T.);
#203=ORIENTED_EDGE('',*,*,#260,.T.);
#204=ORIENTED_EDGE('',*,*,#256,.T.);
#205=ORIENTED_EDGE('',*,*,#254,.F.);
#206=ORIENTED_EDGE('',*,*,#255,.F.);
#207=ORIENTED_EDGE('',*,*,#260,.F.);
#208=VERTEX_POINT('',#535);
#209=VERTEX_POINT('',#536);
#210=VERTEX_POINT('',#538);
#211=VERTEX_POINT('',#540);
#212=VERTEX_POINT('',#544);
#213=VERTEX_POINT('',#553);
#214=VERTEX_POINT('',#554);
#215=VERTEX_POINT('',#556);
#216=VERTEX_POINT('',#558);
#217=VERTEX_POINT('',#562);
#218=VERTEX_POINT('',#563);
#219=VERTEX_POINT('',#574);
#220=VERTEX_POINT('',#575);
#221=VERTEX_POINT('',#577);
#222=VERTEX_POINT('',#579);
#223=VERTEX_POINT('',#590);
#224=VERTEX_POINT('',#591);
#225=VERTEX_POINT('',#595);
#226=VERTEX_POINT('',#597);
#227=EDGE_CURVE('',#208,#209,#293,.T.);
#228=EDGE_CURVE('',#210,#209,#118,.T.);
#229=EDGE_CURVE('',#211,#210,#294,.T.);
#230=EDGE_CURVE('',#208,#211,#119,.T.);
#231=EDGE_CURVE('',#209,#212,#295,.T.);
#232=EDGE_CURVE('',#210,#212,#296,.T.);
#233=EDGE_CURVE('',#209,#210,#120,.T.);
#234=EDGE_CURVE('',#211,#208,#121,.T.);
#235=EDGE_CURVE('',#213,#214,#297,.T.);
#236=EDGE_CURVE('',#215,#214,#122,.T.);
#237=EDGE_CURVE('',#216,#215,#298,.T.);
#238=EDGE_CURVE('',#213,#216,#123,.T.);
#239=EDGE_CURVE('',#217,#218,#124,.T.);
#240=EDGE_CURVE('',#218,#217,#125,.T.);
#241=EDGE_CURVE('',#216,#217,#299,.T.);
#242=EDGE_CURVE('',#213,#218,#300,.T.);
#243=EDGE_CURVE('',#216,#213,#126,.T.);
#244=EDGE_CURVE('',#214,#215,#127,.T.);
#245=EDGE_CURVE('',#219,#220,#301,.T.);
#246=EDGE_CURVE('',#221,#219,#128,.T.);
#247=EDGE_CURVE('',#221,#222,#302,.T.);
#248=EDGE_CURVE('',#220,#222,#129,.T.);
#249=EDGE_CURVE('',#222,#214,#130,.T.);
#250=EDGE_CURVE('',#220,#215,#131,.T.);
#251=EDGE_CURVE('',#222,#220,#132,.T.);
#252=EDGE_CURVE('',#219,#221,#133,.T.);
#253=EDGE_CURVE('',#223,#224,#134,.T.);
#254=EDGE_CURVE('',#224,#223,#135,.T.);
#255=EDGE_CURVE('',#225,#224,#303,.T.);
#256=EDGE_CURVE('',#226,#223,#304,.T.);
#257=EDGE_CURVE('',#225,#226,#136,.T.);
#258=EDGE_CURVE('',#219,#226,#137,.T.);
#259=EDGE_CURVE('',#221,#225,#138,.T.);
#260=EDGE_CURVE('',#226,#225,#139,.T.);
#261=CURVE_STYLE('',#274,POSITIVE_LENGTH_MEASURE(0.13),#272);
#262=CURVE_STYLE('',#275,POSITIVE_LENGTH_MEASURE(0.13),#272);
#263=CURVE_STYLE('',#276,POSITIVE_LENGTH_MEASURE(0.13),#272);
#264=CURVE_STYLE('',#277,POSITIVE_LENGTH_MEASURE(0.13),#272);
#265=CURVE_STYLE('',#278,POSITIVE_LENGTH_MEASURE(0.13),#355);
#266=CURVE_STYLE('',#279,POSITIVE_LENGTH_MEASURE(0.13),#355);
#267=CURVE_STYLE('',#280,POSITIVE_LENGTH_MEASURE(0.13),#273);
#268=CURVE_STYLE('',#281,POSITIVE_LENGTH_MEASURE(0.13),#273);
#269=CURVE_STYLE('',#282,POSITIVE_LENGTH_MEASURE(0.13),#273);
#270=CURVE_STYLE('',#283,POSITIVE_LENGTH_MEASURE(0.13),#355);
#271=CURVE_STYLE('',#284,POSITIVE_LENGTH_MEASURE(0.13),#355);
#272=DRAUGHTING_PRE_DEFINED_COLOUR('blue');
#273=DRAUGHTING_PRE_DEFINED_COLOUR('yellow');
#274=DRAUGHTING_PRE_DEFINED_CURVE_FONT('continuous');
#275=DRAUGHTING_PRE_DEFINED_CURVE_FONT('continuous');
#276=DRAUGHTING_PRE_DEFINED_CURVE_FONT('continuous');
#277=DRAUGHTING_PRE_DEFINED_CURVE_FONT('continuous');
#278=DRAUGHTING_PRE_DEFINED_CURVE_FONT('continuous');
#279=DRAUGHTING_PRE_DEFINED_CURVE_FONT('continuous');
#280=DRAUGHTING_PRE_DEFINED_CURVE_FONT('continuous');
#281=DRAUGHTING_PRE_DEFINED_CURVE_FONT('continuous');
#282=DRAUGHTING_PRE_DEFINED_CURVE_FONT('continuous');
#283=DRAUGHTING_PRE_DEFINED_CURVE_FONT('continuous');
#284=DRAUGHTING_PRE_DEFINED_CURVE_FONT('continuous');
#285=TRIMMED_CURVE('',#289,(PARAMETER_VALUE(0.)),(PARAMETER_VALUE(1.)),
 .T.,.PARAMETER.);
#286=TRIMMED_CURVE('',#290,(PARAMETER_VALUE(0.)),(PARAMETER_VALUE(1.)),
 .T.,.PARAMETER.);
#287=TRIMMED_CURVE('',#291,(PARAMETER_VALUE(0.)),(PARAMETER_VALUE(1.)),
 .T.,.PARAMETER.);
#288=TRIMMED_CURVE('',#292,(PARAMETER_VALUE(0.)),(PARAMETER_VALUE(1.)),
 .T.,.PARAMETER.);
#289=LINE('',#523,#305);
#290=LINE('',#524,#306);
#291=LINE('',#525,#307);
#292=LINE('',#526,#308);
#293=LINE('',#534,#309);
#294=LINE('',#539,#310);
#295=LINE('',#543,#311);
#296=LINE('',#545,#312);
#297=LINE('',#552,#313);
#298=LINE('',#557,#314);
#299=LINE('',#566,#315);
#300=LINE('',#567,#316);
#301=LINE('',#573,#317);
#302=LINE('',#578,#318);
#303=LINE('',#594,#319);
#304=LINE('',#596,#320);
#305=VECTOR('',#409,10.71626);
#306=VECTOR('',#410,12.68924630356);
#307=VECTOR('',#411,11.40400569607);
#308=VECTOR('',#412,8.7888466409);
#309=VECTOR('',#427,1.);
#310=VECTOR('',#430,1.);
#311=VECTOR('',#435,1.);
#312=VECTOR('',#436,1.);
#313=VECTOR('',#449,1.);
#314=VECTOR('',#452,1.);
#315=VECTOR('',#463,1.);
#316=VECTOR('',#464,1.);
#317=VECTOR('',#475,1.);
#318=VECTOR('',#478,1.);
#319=VECTOR('',#503,1.);
#320=VECTOR('',#504,1.);
#321=PRESENTATION_LAYER_ASSIGNMENT('1','Layer 1',(#522,#359,#360,#364,#365,
#42,#43));
#322=PRESENTATION_LAYER_ASSIGNMENT('3','Layer 3',(#285,#286,#287,#288));
#323=PRESENTATION_LAYER_ASSIGNMENT('2','Layer 2',(#361,#362,#363));
#324=STYLED_ITEM('',(#338),#522);
#325=STYLED_ITEM('',(#339),#285);
#326=STYLED_ITEM('',(#340),#286);
#327=STYLED_ITEM('',(#341),#287);
#328=STYLED_ITEM('',(#342),#288);
#329=STYLED_ITEM('',(#343),#359);
#330=STYLED_ITEM('',(#344),#360);
#331=STYLED_ITEM('',(#345),#361);
#332=STYLED_ITEM('',(#346),#362);
#333=STYLED_ITEM('',(#347),#363);
#334=STYLED_ITEM('',(#348),#364);
#335=STYLED_ITEM('',(#349),#365);
#336=STYLED_ITEM('',(#350),#42);
#337=STYLED_ITEM('',(#351),#43);
#338=PRESENTATION_STYLE_ASSIGNMENT((#352));
#339=PRESENTATION_STYLE_ASSIGNMENT((#261));
#340=PRESENTATION_STYLE_ASSIGNMENT((#262));
#341=PRESENTATION_STYLE_ASSIGNMENT((#263));
#342=PRESENTATION_STYLE_ASSIGNMENT((#264));
#343=PRESENTATION_STYLE_ASSIGNMENT((#265));
#344=PRESENTATION_STYLE_ASSIGNMENT((#266));
#345=PRESENTATION_STYLE_ASSIGNMENT((#267));
#346=PRESENTATION_STYLE_ASSIGNMENT((#268));
#347=PRESENTATION_STYLE_ASSIGNMENT((#269));
#348=PRESENTATION_STYLE_ASSIGNMENT((#270));
#349=PRESENTATION_STYLE_ASSIGNMENT((#271));
#350=PRESENTATION_STYLE_ASSIGNMENT((#32));
#351=PRESENTATION_STYLE_ASSIGNMENT((#33));
#352=POINT_STYLE('',#353,POSITIVE_LENGTH_MEASURE(3.),#354);
#353=PRE_DEFINED_POINT_MARKER_SYMBOL('plus');
#354=COLOUR_RGB('Medium Royal',0.301960784313725,0.427450980392157,0.701960784313725);
#355=COLOUR_RGB('Medium Maroon',0.6,0.4,0.4);
#356=COLOUR_RGB('light gray',0.8,0.8,0.8);
#357=COLOUR_RGB('medium gray',0.490196078431373,0.490196078431373,0.490196078431373);
#358=AXIS2_PLACEMENT_3D('',#521,#407,#408);
#359=AXIS2_PLACEMENT_3D('',#527,#413,#414);
#360=AXIS2_PLACEMENT_3D('',#528,#415,#416);
#361=AXIS2_PLACEMENT_3D('MCS',#529,#417,#418);
#362=AXIS2_PLACEMENT_3D('CIP',#530,#419,#420);
#363=AXIS2_PLACEMENT_3D('PCS',#531,#421,#422);
#364=AXIS2_PLACEMENT_3D('',#532,#423,#424);
#365=AXIS2_PLACEMENT_3D('',#533,#425,#426);
#366=AXIS2_PLACEMENT_3D('',#537,#428,#429);
#367=AXIS2_PLACEMENT_3D('',#541,#431,#432);
#368=AXIS2_PLACEMENT_3D('',#542,#433,#434);
#369=AXIS2_PLACEMENT_3D('',#546,#437,#438);
#370=AXIS2_PLACEMENT_3D('',#547,#439,#440);
#371=AXIS2_PLACEMENT_3D('',#548,#441,#442);
#372=AXIS2_PLACEMENT_3D('',#549,#443,#444);
#373=AXIS2_PLACEMENT_3D('',#550,#445,#446);
#374=AXIS2_PLACEMENT_3D('',#551,#447,#448);
#375=AXIS2_PLACEMENT_3D('',#555,#450,#451);
#376=AXIS2_PLACEMENT_3D('',#559,#453,#454);
#377=AXIS2_PLACEMENT_3D('',#560,#455,#456);
#378=AXIS2_PLACEMENT_3D('',#561,#457,#458);
#379=AXIS2_PLACEMENT_3D('',#564,#459,#460);
#380=AXIS2_PLACEMENT_3D('',#565,#461,#462);
#381=AXIS2_PLACEMENT_3D('',#568,#465,#466);
#382=AXIS2_PLACEMENT_3D('',#569,#467,#468);
#383=AXIS2_PLACEMENT_3D('',#570,#469,#470);
#384=AXIS2_PLACEMENT_3D('',#571,#471,#472);
#385=AXIS2_PLACEMENT_3D('',#572,#473,#474);
#386=AXIS2_PLACEMENT_3D('',#576,#476,#477);
#387=AXIS2_PLACEMENT_3D('',#580,#479,#480);
#388=AXIS2_PLACEMENT_3D('',#581,#481,#482);
#389=AXIS2_PLACEMENT_3D('',#582,#483,#484);
#390=AXIS2_PLACEMENT_3D('',#583,#485,#486);
#391=AXIS2_PLACEMENT_3D('',#584,#487,#488);
#392=AXIS2_PLACEMENT_3D('',#585,#489,#490);
#393=AXIS2_PLACEMENT_3D('',#586,#491,#492);
#394=AXIS2_PLACEMENT_3D('',#587,#493,#494);
#395=AXIS2_PLACEMENT_3D('',#588,#495,#496);
#396=AXIS2_PLACEMENT_3D('',#589,#497,#498);
#397=AXIS2_PLACEMENT_3D('',#592,#499,#500);
#398=AXIS2_PLACEMENT_3D('',#593,#501,#502);
#399=AXIS2_PLACEMENT_3D('',#598,#505,#506);
#400=AXIS2_PLACEMENT_3D('',#599,#507,#508);
#401=AXIS2_PLACEMENT_3D('',#600,#509,#510);
#402=AXIS2_PLACEMENT_3D('',#601,#511,#512);
#403=AXIS2_PLACEMENT_3D('',#602,#513,#514);
#404=AXIS2_PLACEMENT_3D('',#603,#515,#516);
#405=AXIS2_PLACEMENT_3D('',#604,#517,#518);
#406=AXIS2_PLACEMENT_3D('',#605,#519,#520);
#407=DIRECTION('',(0.,0.,1.));
#408=DIRECTION('',(1.,0.,0.));
#409=DIRECTION('',(1.,0.,0.));
#410=DIRECTION('',(0.,0.,-1.));
#411=DIRECTION('',(-0.939692620785897,0.,0.342020143325699));
#412=DIRECTION('',(0.,0.,1.));
#413=DIRECTION('',(0.,0.,1.));
#414=DIRECTION('',(1.,0.,0.));
#415=DIRECTION('',(0.,0.,1.));
#416=DIRECTION('',(1.,0.,0.));
#417=DIRECTION('',(0.,0.,1.));
#418=DIRECTION('',(1.,0.,0.));
#419=DIRECTION('',(0.,0.,1.));
#420=DIRECTION('',(1.,0.,0.));
#421=DIRECTION('',(0.,0.,1.));
#422=DIRECTION('',(1.,0.,0.));
#423=DIRECTION('',(0.,0.,1.));
#424=DIRECTION('',(1.,0.,0.));
#425=DIRECTION('',(0.,0.,1.));
#426=DIRECTION('',(1.,0.,0.));
#427=DIRECTION('',(-4.082720932791E-14,0.,-1.));
#428=DIRECTION('',(0.,0.,-1.));
#429=DIRECTION('',(-1.,0.,0.));
#430=DIRECTION('',(4.082720932791E-14,0.,-1.));
#431=DIRECTION('',(0.,0.,1.));
#432=DIRECTION('',(1.,0.,0.));
#433=DIRECTION('',(0.,0.,-1.));
#434=DIRECTION('',(-1.,0.,0.));
#435=DIRECTION('',(-0.93969262078593,0.,-0.342020143325611));
#436=DIRECTION('',(0.93969262078593,0.,-0.342020143325611));
#437=DIRECTION('',(0.,0.,1.));
#438=DIRECTION('',(1.,0.,2.01641896603334E-17));
#439=DIRECTION('',(0.,0.,-1.));
#440=DIRECTION('',(1.,0.,0.));
#441=DIRECTION('',(0.,0.,1.));
#442=DIRECTION('',(1.,0.,2.01641896603334E-17));
#443=DIRECTION('',(0.,0.,1.));
#444=DIRECTION('',(-1.,0.,0.));
#445=DIRECTION('',(0.,0.,-1.));
#446=DIRECTION('',(-1.,0.,0.));
#447=DIRECTION('',(0.,0.,1.));
#448=DIRECTION('',(-1.,0.,0.));
#449=DIRECTION('',(0.,0.,-1.));
#450=DIRECTION('',(0.,0.,-1.));
#451=DIRECTION('',(-1.,0.,0.));
#452=DIRECTION('',(0.,0.,-1.));
#453=DIRECTION('',(0.,0.,1.));
#454=DIRECTION('',(1.,0.,0.));
#455=DIRECTION('',(0.,0.,1.));
#456=DIRECTION('',(-1.,0.,0.));
#457=DIRECTION('',(0.,0.,1.));
#458=DIRECTION('',(-1.,0.,0.));
#459=DIRECTION('',(0.,0.,1.));
#460=DIRECTION('',(1.,0.,0.));
#461=DIRECTION('',(0.,0.,1.));
#462=DIRECTION('',(-1.,0.,0.));
#463=DIRECTION('',(0.500000000000092,0.,0.866025403784386));
#464=DIRECTION('',(-0.500000000000092,0.,0.866025403784386));
#465=DIRECTION('',(0.,0.,-1.));
#466=DIRECTION('',(1.,0.,-7.65136697511846E-17));
#467=DIRECTION('',(0.,0.,1.));
#468=DIRECTION('',(-1.,0.,0.));
#469=DIRECTION('',(0.,0.,-1.));
#470=DIRECTION('',(1.,0.,-7.65136697511846E-17));
#471=DIRECTION('',(0.,0.,-1.));
#472=DIRECTION('',(1.,0.,0.));
#473=DIRECTION('',(0.,0.,1.));
#474=DIRECTION('',(-1.,0.,0.));
#475=DIRECTION('',(-0.0871557427476937,0.,0.996194698091743));
#476=DIRECTION('',(0.,0.,-1.));
#477=DIRECTION('',(1.,0.,0.));
#478=DIRECTION('',(0.0871557427476937,0.,0.996194698091743));
#479=DIRECTION('',(0.,0.,1.));
#480=DIRECTION('',(-1.,0.,0.));
#481=DIRECTION('',(0.,0.,1.));
#482=DIRECTION('',(-1.,0.,-4.91255441653064E-16));
#483=DIRECTION('',(0.,1.,0.));
#484=DIRECTION('',(-0.295230899100001,0.,0.955425934448407));
#485=DIRECTION('',(0.,-1.,0.));
#486=DIRECTION('',(0.295230899100001,0.,0.955425934448407));
#487=DIRECTION('',(0.,0.,1.));
#488=DIRECTION('',(0.999999999881175,1.54158974234496E-5,0.));
#489=DIRECTION('',(0.,0.,1.));
#490=DIRECTION('',(1.,0.,0.));
#491=DIRECTION('',(0.,0.,1.));
#492=DIRECTION('',(-0.999999999877972,-1.56223048407796E-5,0.));
#493=DIRECTION('',(0.,0.,-1.));
#494=DIRECTION('',(-1.,0.,0.));
#495=DIRECTION('',(0.,0.,1.));
#496=DIRECTION('',(-1.,0.,-4.21076092845483E-16));
#497=DIRECTION('',(0.,0.,-1.));
#498=DIRECTION('',(-1.,0.,0.));
#499=DIRECTION('',(0.,0.,-1.));
#500=DIRECTION('',(1.,0.,0.));
#501=DIRECTION('',(0.,0.,1.));
#502=DIRECTION('',(0.,-1.,0.));
#503=DIRECTION('',(0.,0.,-1.));
#504=DIRECTION('',(0.,0.,-1.));
#505=DIRECTION('',(0.,0.,1.));
#506=DIRECTION('',(1.,0.,0.));
#507=DIRECTION('',(0.,0.,1.));
#508=DIRECTION('',(-1.,0.,0.));
#509=DIRECTION('',(0.,1.,0.));
#510=DIRECTION('',(0.124319811725592,0.,0.992242200479557));
#511=DIRECTION('',(0.,-1.,0.));
#512=DIRECTION('',(-0.124319811725592,0.,0.992242200479557));
#513=DIRECTION('',(0.,0.,1.));
#514=DIRECTION('',(-0.999999999813495,-1.93134820259099E-5,0.));
#515=DIRECTION('',(0.,0.,1.));
#516=DIRECTION('',(-1.,0.,0.));
#517=DIRECTION('',(0.,0.,1.));
#518=DIRECTION('',(0.999999999818355,1.90601949251391E-5,0.));
#519=DIRECTION('',(0.,0.,1.));
#520=DIRECTION('',(-1.,0.,0.));
#521=CARTESIAN_POINT('',(0.,0.,0.));
#522=CARTESIAN_POINT('',(-10.71626,0.,-127.5384));
#523=CARTESIAN_POINT('',(-10.71626,0.,-118.7495533591));
#524=CARTESIAN_POINT('',(0.,0.,-118.7495533591));
#525=CARTESIAN_POINT('',(0.,0.,-131.4387996627));
#526=CARTESIAN_POINT('',(-10.71626,0.,-127.5384));
#527=CARTESIAN_POINT('',(0.,0.,-28.55));
#528=CARTESIAN_POINT('',(0.,0.,-28.55));
#529=CARTESIAN_POINT('',(0.,0.,-28.55));
#530=CARTESIAN_POINT('',(0.,0.,-131.438799663));
#531=CARTESIAN_POINT('',(0.,0.,0.));
#532=CARTESIAN_POINT('',(0.,0.,-28.55));
#533=CARTESIAN_POINT('',(0.,0.,-28.55));
#534=CARTESIAN_POINT('',(10.71626,0.,-118.7495533591));
#535=CARTESIAN_POINT('',(10.71626,0.,-118.7495533591));
#536=CARTESIAN_POINT('',(10.71626,0.,-127.5384));
#537=CARTESIAN_POINT('',(0.,0.,-127.5384));
#538=CARTESIAN_POINT('',(-10.71626,0.,-127.5384));
#539=CARTESIAN_POINT('',(-10.71626,0.,-118.7495533591));
#540=CARTESIAN_POINT('',(-10.71626,0.,-118.7495533591));
#541=CARTESIAN_POINT('',(0.,0.,-118.7495533591));
#542=CARTESIAN_POINT('',(0.,0.,-23.405560016867));
#543=CARTESIAN_POINT('',(0.,0.,-131.4387996627));
#544=CARTESIAN_POINT('',(0.,0.,-131.4387996627));
#545=CARTESIAN_POINT('',(0.,0.,-131.4387996627));
#546=CARTESIAN_POINT('',(0.,0.,-129.4495958347));
#547=CARTESIAN_POINT('',(0.,0.,-127.5384));
#548=CARTESIAN_POINT('',(0.,0.,-129.4495958347));
#549=CARTESIAN_POINT('',(0.,0.,-118.7495533591));
#550=CARTESIAN_POINT('',(0.,0.,-23.405560016867));
#551=CARTESIAN_POINT('',(0.,0.,-118.7495533591));
#552=CARTESIAN_POINT('',(12.7,-1.107770010508E-14,-28.5500000015806));
#553=CARTESIAN_POINT('',(12.7,0.,26.65));
#554=CARTESIAN_POINT('',(12.7,0.,-28.5500000015906));
#555=CARTESIAN_POINT('',(0.,0.,-28.5500000015906));
#556=CARTESIAN_POINT('',(-12.7,0.,-28.5500000015706));
#557=CARTESIAN_POINT('',(-12.7,0.,-28.5500000015806));
#558=CARTESIAN_POINT('',(-12.7,0.,26.65));
#559=CARTESIAN_POINT('',(0.,0.,26.65));
#560=CARTESIAN_POINT('',(0.,0.,-173.16));
#561=CARTESIAN_POINT('',(0.,0.,28.65));
#562=CARTESIAN_POINT('',(-11.54529946162,0.,28.65));
#563=CARTESIAN_POINT('',(11.54529946162,0.,28.65));
#564=CARTESIAN_POINT('',(0.,0.,28.65));
#565=CARTESIAN_POINT('',(0.,0.,28.65));
#566=CARTESIAN_POINT('',(-11.54529946162,0.,28.65));
#567=CARTESIAN_POINT('',(11.54529946162,0.,28.65));
#568=CARTESIAN_POINT('',(0.,0.,27.65));
#569=CARTESIAN_POINT('',(0.,0.,26.65));
#570=CARTESIAN_POINT('',(0.,0.,27.65));
#571=CARTESIAN_POINT('',(0.,0.,-28.5500000015706));
#572=CARTESIAN_POINT('',(0.,0.,-173.16));
#573=CARTESIAN_POINT('',(-10.35027207531,0.,-52.55000000078));
#574=CARTESIAN_POINT('',(-10.35027207531,1.12351941522E-14,-52.55000000078));
#575=CARTESIAN_POINT('',(-12.4196144804,0.,-28.8973080782512));
#576=CARTESIAN_POINT('',(0.,0.,-52.55000000078));
#577=CARTESIAN_POINT('',(10.35027207531,0.,-52.55000000079));
#578=CARTESIAN_POINT('',(10.35027207531,2.839869624085E-14,-52.55000000078));
#579=CARTESIAN_POINT('',(12.4196144804,0.,-28.8973080782512));
#580=CARTESIAN_POINT('',(0.,0.,-28.8973080782512));
#581=CARTESIAN_POINT('',(0.,0.,-40.72365403952));
#582=CARTESIAN_POINT('',(12.81809235964,-2.301541661247E-14,-28.93217037537));
#583=CARTESIAN_POINT('',(-12.81809235964,0.,-28.93217037535));
#584=CARTESIAN_POINT('',(0.,0.,-28.93217037535));
#585=CARTESIAN_POINT('',(0.,0.,-28.8973080782712));
#586=CARTESIAN_POINT('',(0.,0.,-28.93217037537));
#587=CARTESIAN_POINT('',(0.,0.,-52.55000000079));
#588=CARTESIAN_POINT('',(0.,0.,-40.72365403953));
#589=CARTESIAN_POINT('',(0.,0.,-118.75));
#590=CARTESIAN_POINT('',(-10.,0.,-118.75));
#591=CARTESIAN_POINT('',(10.,0.,-118.75));
#592=CARTESIAN_POINT('',(0.,0.,-118.75));
#593=CARTESIAN_POINT('',(0.,0.,-118.75));
#594=CARTESIAN_POINT('',(10.,0.,-118.75));
#595=CARTESIAN_POINT('',(10.,0.,-52.94689688097));
#596=CARTESIAN_POINT('',(-10.,0.,-118.75));
#597=CARTESIAN_POINT('',(-10.,0.,-52.94689688097));
#598=CARTESIAN_POINT('',(0.,0.,-52.94689688098));
#599=CARTESIAN_POINT('',(0.,0.,-173.16));
#600=CARTESIAN_POINT('',(-10.4,1.128917380584E-14,-52.94689688097));
#601=CARTESIAN_POINT('',(10.4,6.45911817955E-14,-52.94689688098));
#602=CARTESIAN_POINT('',(0.,0.,-52.94689688098));
#603=CARTESIAN_POINT('',(0.,0.,-52.94689688097));
#604=CARTESIAN_POINT('',(0.,0.,-52.94689688097));
#605=CARTESIAN_POINT('',(0.,0.,-173.16));
#606=MECHANICAL_DESIGN_GEOMETRIC_PRESENTATION_REPRESENTATION('',(#324,#325,
#326,#327,#328,#329,#330,#331,#332,#333,#334,#335,#336,#337),#607);
#607=(
GEOMETRIC_REPRESENTATION_CONTEXT(3)
GLOBAL_UNCERTAINTY_ASSIGNED_CONTEXT((#608))
GLOBAL_UNIT_ASSIGNED_CONTEXT((#614,#610,#609))
REPRESENTATION_CONTEXT('TAWSN0054_ID0_8438','TOP_LEVEL_ASSEMBLY_PART')
);
#608=UNCERTAINTY_MEASURE_WITH_UNIT(LENGTH_MEASURE(0.001),#614,
'DISTANCE_ACCURACY_VALUE','Maximum Tolerance applied to model');
#609=(
NAMED_UNIT(*)
SI_UNIT($,.STERADIAN.)
SOLID_ANGLE_UNIT()
);
#610=(
CONVERSION_BASED_UNIT('DEGREE',#612)
NAMED_UNIT(#611)
PLANE_ANGLE_UNIT()
);
#611=DIMENSIONAL_EXPONENTS(0.,0.,0.,0.,0.,0.,0.);
#612=PLANE_ANGLE_MEASURE_WITH_UNIT(PLANE_ANGLE_MEASURE(0.0174532925),#613);
#613=(
NAMED_UNIT(*)
PLANE_ANGLE_UNIT()
SI_UNIT($,.RADIAN.)
);
#614=(
LENGTH_UNIT()
NAMED_UNIT(*)
SI_UNIT(.MILLI.,.METRE.)
);
ENDSEC;
END-ISO-10303-21;
