ISO-10303-21;
HEADER;
/* Generated by software containing ST-Developer
 * from STEP Tools, Inc. (www.steptools.com) 
 */
/* OPTION: using custom schema-name function */

FILE_DESCRIPTION(
/* description */ (''),
/* implementation_level */ '2;1');

FILE_NAME(
/* name */ 'HLS3.stp',
/* time_stamp */ '2022-02-03T10:37:18+09:00',
/* author */ (''),
/* organization */ (''),
/* preprocessor_version */ 'ST-DEVELOPER v16',
/* originating_system */ 'SIEMENS PLM Software NX 10.0',
/* authorisation */ '');

FILE_SCHEMA (('AUTOMOTIVE_DESIGN { 1 0 10303 214 3 1 1 1 }'));
ENDSEC;

DATA;
#10=CONSTRUCTIVE_GEOMETRY_REPRESENTATION_RELATIONSHIP(
'supplemental geometry','',#26,#11);
#11=CONSTRUCTIVE_GEOMETRY_REPRESENTATION('supplemental geometry',(#176,
#177),#305);
#12=GEOMETRICALLY_BOUNDED_WIREFRAME_SHAPE_REPRESENTATION('HLS3-None',(#27),
#305);
#13=SHAPE_REPRESENTATION_RELATIONSHIP('None',
'relationship between HLS3-None and HLS3-None',#26,#15);
#14=SHAPE_REPRESENTATION_RELATIONSHIP('None',
'relationship between HLS3-None and HLS3-None',#26,#12);
#15=ADVANCED_BREP_SHAPE_REPRESENTATION('HLS3-None',(#33),#305);
#16=SHAPE_DEFINITION_REPRESENTATION(#17,#26);
#17=PRODUCT_DEFINITION_SHAPE('','',#18);
#18=PRODUCT_DEFINITION('part definition','',#20,#19);
#19=PRODUCT_DEFINITION_CONTEXT('part definition',#25,'design');
#20=PRODUCT_DEFINITION_FORMATION_WITH_SPECIFIED_SOURCE(' ',' ',#22,
 .NOT_KNOWN.);
#21=PRODUCT_RELATED_PRODUCT_CATEGORY('part','',(#22));
#22=PRODUCT('HLS3','HLS3','NOT SPECIFIED',(#23));
#23=PRODUCT_CONTEXT('',#25,'mechanical');
#24=APPLICATION_PROTOCOL_DEFINITION('international standard',
'automotive_design',2010,#25);
#25=APPLICATION_CONTEXT(
'core data for automotive mechanical design processes');
#26=SHAPE_REPRESENTATION('HLS3-None',(#175),#305);
#27=GEOMETRIC_CURVE_SET('None',(#233));
#28=SURFACE_STYLE_USAGE(.BOTH.,#29);
#29=SURFACE_SIDE_STYLE('',(#30));
#30=SURFACE_STYLE_FILL_AREA(#31);
#31=FILL_AREA_STYLE('',(#32));
#32=FILL_AREA_STYLE_COLOUR('',#158);
#33=MANIFOLD_SOLID_BREP('',#34);
#34=CLOSED_SHELL('',(#52,#53,#54,#55,#56,#57,#58,#59));
#35=PLANE('',#184);
#36=PLANE('',#185);
#37=PLANE('',#186);
#38=CYLINDRICAL_SURFACE('',#182,2.925);
#39=CYLINDRICAL_SURFACE('',#191,3.275);
#40=LINE('',#255,#46);
#41=LINE('',#257,#47);
#42=LINE('',#261,#48);
#43=LINE('',#265,#49);
#44=LINE('',#267,#50);
#45=LINE('',#297,#51);
#46=VECTOR('',#204,1.);
#47=VECTOR('',#205,1.);
#48=VECTOR('',#210,1.);
#49=VECTOR('',#213,1.);
#50=VECTOR('',#216,1.);
#51=VECTOR('',#219,1.);
#52=ADVANCED_FACE('',(#63),#60,.F.);
#53=ADVANCED_FACE('',(#64),#38,.F.);
#54=ADVANCED_FACE('',(#65),#35,.T.);
#55=ADVANCED_FACE('',(#66),#36,.F.);
#56=ADVANCED_FACE('',(#67),#37,.F.);
#57=ADVANCED_FACE('',(#68),#61,.T.);
#58=ADVANCED_FACE('',(#69),#62,.T.);
#59=ADVANCED_FACE('',(#70),#39,.T.);
#60=CONICAL_SURFACE('',#180,3.124500185048,30.);
#61=CONICAL_SURFACE('',#188,3.474500185048,60.);
#62=CONICAL_SURFACE('',#190,3.45,30.);
#63=FACE_OUTER_BOUND('',#71,.T.);
#64=FACE_OUTER_BOUND('',#72,.T.);
#65=FACE_OUTER_BOUND('',#73,.T.);
#66=FACE_OUTER_BOUND('',#74,.T.);
#67=FACE_OUTER_BOUND('',#75,.T.);
#68=FACE_OUTER_BOUND('',#76,.T.);
#69=FACE_OUTER_BOUND('',#77,.T.);
#70=FACE_OUTER_BOUND('',#78,.T.);
#71=EDGE_LOOP('',(#85,#86,#87,#88));
#72=EDGE_LOOP('',(#89,#90,#91,#92));
#73=EDGE_LOOP('',(#93,#94,#95,#96));
#74=EDGE_LOOP('',(#97,#98,#99,#100,#101,#102));
#75=EDGE_LOOP('',(#103,#104,#105,#106,#107,#108));
#76=EDGE_LOOP('',(#109,#110,#111,#112));
#77=EDGE_LOOP('',(#113,#114,#115,#116));
#78=EDGE_LOOP('',(#117,#118,#119,#120));
#79=CIRCLE('',#178,3.324000370096);
#80=CIRCLE('',#179,2.925);
#81=CIRCLE('',#181,2.925);
#82=CIRCLE('',#183,3.275);
#83=CIRCLE('',#187,3.625);
#84=CIRCLE('',#189,3.275);
#85=ORIENTED_EDGE('',*,*,#133,.F.);
#86=ORIENTED_EDGE('',*,*,#134,.T.);
#87=ORIENTED_EDGE('',*,*,#135,.F.);
#88=ORIENTED_EDGE('',*,*,#136,.T.);
#89=ORIENTED_EDGE('',*,*,#137,.F.);
#90=ORIENTED_EDGE('',*,*,#136,.F.);
#91=ORIENTED_EDGE('',*,*,#138,.T.);
#92=ORIENTED_EDGE('',*,*,#139,.F.);
#93=ORIENTED_EDGE('',*,*,#139,.T.);
#94=ORIENTED_EDGE('',*,*,#140,.T.);
#95=ORIENTED_EDGE('',*,*,#141,.T.);
#96=ORIENTED_EDGE('',*,*,#142,.T.);
#97=ORIENTED_EDGE('',*,*,#137,.T.);
#98=ORIENTED_EDGE('',*,*,#142,.F.);
#99=ORIENTED_EDGE('',*,*,#143,.F.);
#100=ORIENTED_EDGE('',*,*,#144,.F.);
#101=ORIENTED_EDGE('',*,*,#145,.T.);
#102=ORIENTED_EDGE('',*,*,#133,.T.);
#103=ORIENTED_EDGE('',*,*,#146,.T.);
#104=ORIENTED_EDGE('',*,*,#147,.F.);
#105=ORIENTED_EDGE('',*,*,#148,.T.);
#106=ORIENTED_EDGE('',*,*,#140,.F.);
#107=ORIENTED_EDGE('',*,*,#138,.F.);
#108=ORIENTED_EDGE('',*,*,#135,.T.);
#109=ORIENTED_EDGE('',*,*,#145,.F.);
#110=ORIENTED_EDGE('',*,*,#149,.F.);
#111=ORIENTED_EDGE('',*,*,#146,.F.);
#112=ORIENTED_EDGE('',*,*,#134,.F.);
#113=ORIENTED_EDGE('',*,*,#144,.T.);
#114=ORIENTED_EDGE('',*,*,#150,.F.);
#115=ORIENTED_EDGE('',*,*,#147,.T.);
#116=ORIENTED_EDGE('',*,*,#149,.T.);
#117=ORIENTED_EDGE('',*,*,#143,.T.);
#118=ORIENTED_EDGE('',*,*,#141,.F.);
#119=ORIENTED_EDGE('',*,*,#148,.F.);
#120=ORIENTED_EDGE('',*,*,#150,.T.);
#121=VERTEX_POINT('',#242);
#122=VERTEX_POINT('',#243);
#123=VERTEX_POINT('',#245);
#124=VERTEX_POINT('',#252);
#125=VERTEX_POINT('',#256);
#126=VERTEX_POINT('',#258);
#127=VERTEX_POINT('',#262);
#128=VERTEX_POINT('',#264);
#129=VERTEX_POINT('',#268);
#130=VERTEX_POINT('',#275);
#131=VERTEX_POINT('',#289);
#132=VERTEX_POINT('',#296);
#133=EDGE_CURVE('',#121,#122,#151,.T.);
#134=EDGE_CURVE('',#121,#123,#79,.T.);
#135=EDGE_CURVE('',#124,#123,#152,.T.);
#136=EDGE_CURVE('',#124,#122,#80,.T.);
#137=EDGE_CURVE('',#122,#125,#40,.T.);
#138=EDGE_CURVE('',#124,#126,#41,.T.);
#139=EDGE_CURVE('',#125,#126,#81,.T.);
#140=EDGE_CURVE('',#126,#127,#42,.T.);
#141=EDGE_CURVE('',#127,#128,#82,.T.);
#142=EDGE_CURVE('',#128,#125,#43,.T.);
#143=EDGE_CURVE('',#129,#128,#44,.T.);
#144=EDGE_CURVE('',#130,#129,#153,.T.);
#145=EDGE_CURVE('',#130,#121,#154,.T.);
#146=EDGE_CURVE('',#123,#131,#155,.T.);
#147=EDGE_CURVE('',#132,#131,#156,.T.);
#148=EDGE_CURVE('',#132,#127,#45,.T.);
#149=EDGE_CURVE('',#131,#130,#83,.T.);
#150=EDGE_CURVE('',#132,#129,#84,.T.);
#151=B_SPLINE_CURVE_WITH_KNOTS('',3,(#236,#237,#238,#239,#240,#241),
 .UNSPECIFIED.,.F.,.F.,(4,1,1,4),(0.,0.3333333333333,0.6666666666667,1.),
 .UNSPECIFIED.);
#152=B_SPLINE_CURVE_WITH_KNOTS('',3,(#246,#247,#248,#249,#250,#251),
 .UNSPECIFIED.,.F.,.F.,(4,1,1,4),(0.,0.3333333333333,0.6666666666667,1.),
 .UNSPECIFIED.);
#153=B_SPLINE_CURVE_WITH_KNOTS('',3,(#269,#270,#271,#272,#273,#274),
 .UNSPECIFIED.,.F.,.F.,(4,1,1,4),(0.,0.3333333333333,0.6666666666667,1.),
 .UNSPECIFIED.);
#154=B_SPLINE_CURVE_WITH_KNOTS('',3,(#276,#277,#278,#279,#280,#281),
 .UNSPECIFIED.,.F.,.F.,(4,1,1,4),(0.,0.3333333333333,0.6666666666667,1.),
 .UNSPECIFIED.);
#155=B_SPLINE_CURVE_WITH_KNOTS('',3,(#283,#284,#285,#286,#287,#288),
 .UNSPECIFIED.,.F.,.F.,(4,1,1,4),(0.,0.3333333333333,0.6666666666667,1.),
 .UNSPECIFIED.);
#156=B_SPLINE_CURVE_WITH_KNOTS('',3,(#290,#291,#292,#293,#294,#295),
 .UNSPECIFIED.,.F.,.F.,(4,1,1,4),(0.,0.3333333333333,0.6666666666667,1.),
 .UNSPECIFIED.);
#157=COLOUR_RGB('Strong Stone',0.576470588235294,0.54508278019379,0.392156862745098);
#158=COLOUR_RGB('spare part',0.301960784313725,0.301960784313725,0.301960784313725);
#159=CURVE_STYLE('',#161,POSITIVE_LENGTH_MEASURE(0.13),#174);
#160=CURVE_STYLE('',#162,POSITIVE_LENGTH_MEASURE(0.13),#157);
#161=DRAUGHTING_PRE_DEFINED_CURVE_FONT('continuous');
#162=DRAUGHTING_PRE_DEFINED_CURVE_FONT('continuous');
#163=PRESENTATION_LAYER_ASSIGNMENT('1','Layer 1',(#233,#176,#177,#33));
#164=STYLED_ITEM('',(#168),#233);
#165=STYLED_ITEM('',(#169),#176);
#166=STYLED_ITEM('',(#170),#177);
#167=STYLED_ITEM('',(#171),#33);
#168=PRESENTATION_STYLE_ASSIGNMENT((#172));
#169=PRESENTATION_STYLE_ASSIGNMENT((#159));
#170=PRESENTATION_STYLE_ASSIGNMENT((#160));
#171=PRESENTATION_STYLE_ASSIGNMENT((#28));
#172=POINT_STYLE('',#173,POSITIVE_LENGTH_MEASURE(3.),#174);
#173=PRE_DEFINED_POINT_MARKER_SYMBOL('plus');
#174=DRAUGHTING_PRE_DEFINED_COLOUR('yellow');
#175=AXIS2_PLACEMENT_3D('',#232,#192,#193);
#176=AXIS2_PLACEMENT_3D('PCS',#234,#194,#195);
#177=AXIS2_PLACEMENT_3D('',#235,#196,#197);
#178=AXIS2_PLACEMENT_3D('',#244,#198,#199);
#179=AXIS2_PLACEMENT_3D('',#253,#200,#201);
#180=AXIS2_PLACEMENT_3D('',#254,#202,#203);
#181=AXIS2_PLACEMENT_3D('',#259,#206,#207);
#182=AXIS2_PLACEMENT_3D('',#260,#208,#209);
#183=AXIS2_PLACEMENT_3D('',#263,#211,#212);
#184=AXIS2_PLACEMENT_3D('',#266,#214,#215);
#185=AXIS2_PLACEMENT_3D('',#282,#217,#218);
#186=AXIS2_PLACEMENT_3D('',#298,#220,#221);
#187=AXIS2_PLACEMENT_3D('',#299,#222,#223);
#188=AXIS2_PLACEMENT_3D('',#300,#224,#225);
#189=AXIS2_PLACEMENT_3D('',#301,#226,#227);
#190=AXIS2_PLACEMENT_3D('',#302,#228,#229);
#191=AXIS2_PLACEMENT_3D('',#303,#230,#231);
#192=DIRECTION('',(0.,0.,1.));
#193=DIRECTION('',(1.,0.,0.));
#194=DIRECTION('',(0.,0.,1.));
#195=DIRECTION('',(1.,0.,0.));
#196=DIRECTION('',(0.,0.,1.));
#197=DIRECTION('',(1.,0.,0.));
#198=DIRECTION('',(0.,0.,-1.));
#199=DIRECTION('',(0.951268639175797,0.308363383235799,0.));
#200=DIRECTION('',(0.,0.,1.));
#201=DIRECTION('',(-0.936589916704449,0.350427350427381,0.));
#202=DIRECTION('',(0.,0.,-1.));
#203=DIRECTION('',(-1.,0.,4.49202336156078E-17));
#204=DIRECTION('',(0.,0.,1.));
#205=DIRECTION('',(0.,0.,1.));
#206=DIRECTION('',(0.,0.,-1.));
#207=DIRECTION('',(0.936589916704449,0.350427350427381,0.));
#208=DIRECTION('',(0.,0.,1.));
#209=DIRECTION('',(1.,0.,0.));
#210=DIRECTION('',(-1.,0.,0.));
#211=DIRECTION('',(0.,0.,1.));
#212=DIRECTION('',(-0.949760672671511,0.312977099236604,0.));
#213=DIRECTION('',(-1.,0.,0.));
#214=DIRECTION('',(0.,0.,1.));
#215=DIRECTION('',(1.,0.,0.));
#216=DIRECTION('',(0.,0.,1.));
#217=DIRECTION('',(0.,-1.,0.));
#218=DIRECTION('',(-1.,0.,0.));
#219=DIRECTION('',(0.,0.,1.));
#220=DIRECTION('',(0.,-1.,0.));
#221=DIRECTION('',(-1.,0.,0.));
#222=DIRECTION('',(0.,0.,1.));
#223=DIRECTION('',(-0.959191097970399,0.282758620689699,0.));
#224=DIRECTION('',(0.,0.,1.));
#225=DIRECTION('',(1.,0.,5.55446384045387E-17));
#226=DIRECTION('',(0.,0.,1.));
#227=DIRECTION('',(-0.949760672671511,0.312977099236604,0.));
#228=DIRECTION('',(0.,0.,-1.));
#229=DIRECTION('',(-1.,0.,6.33757691043101E-17));
#230=DIRECTION('',(0.,0.,1.));
#231=DIRECTION('',(1.,0.,0.));
#232=CARTESIAN_POINT('',(0.,0.,0.));
#233=CARTESIAN_POINT('',(0.,0.,0.));
#234=CARTESIAN_POINT('',(0.,0.,0.));
#235=CARTESIAN_POINT('',(0.,0.,0.));
#236=CARTESIAN_POINT('',(3.162017308681,1.025,0.));
#237=CARTESIAN_POINT('',(3.112945595808,1.025,0.08085279252231));
#238=CARTESIAN_POINT('',(3.016228008313,1.025,0.2398510994603));
#239=CARTESIAN_POINT('',(2.875463539895,1.025,0.470128447863));
#240=CARTESIAN_POINT('',(2.784375505362,1.025,0.6183322885927));
#241=CARTESIAN_POINT('',(2.739525506361,1.025,0.6910889132455));
#242=CARTESIAN_POINT('',(3.162017308681,1.025,0.));
#243=CARTESIAN_POINT('',(2.739525506361,1.025,0.6910889132455));
#244=CARTESIAN_POINT('',(0.,0.,0.));
#245=CARTESIAN_POINT('',(-3.162017308681,1.025,0.));
#246=CARTESIAN_POINT('',(-2.739525506361,1.025,0.6910889132455));
#247=CARTESIAN_POINT('',(-2.784328231057,1.025,0.6184089779775));
#248=CARTESIAN_POINT('',(-2.875353587677,1.025,0.4703077133951));
#249=CARTESIAN_POINT('',(-3.016114597291,1.025,0.2400372334177));
#250=CARTESIAN_POINT('',(-3.11289710935,1.025,0.08093268102083));
#251=CARTESIAN_POINT('',(-3.162017308681,1.025,0.));
#252=CARTESIAN_POINT('',(-2.739525506361,1.025,0.6910889132455));
#253=CARTESIAN_POINT('',(0.,0.,0.6910889132455));
#254=CARTESIAN_POINT('',(0.,0.,0.3455444566228));
#255=CARTESIAN_POINT('',(2.739525506361,1.025,0.6910889132455));
#256=CARTESIAN_POINT('',(2.739525506361,1.025,3.5));
#257=CARTESIAN_POINT('',(-2.739525506361,1.025,0.6910889132455));
#258=CARTESIAN_POINT('',(-2.739525506361,1.025,3.5));
#259=CARTESIAN_POINT('',(0.,0.,3.5));
#260=CARTESIAN_POINT('',(0.,0.,-0.175));
#261=CARTESIAN_POINT('',(-2.739525506361,1.025,3.5));
#262=CARTESIAN_POINT('',(-3.110466202999,1.025,3.5));
#263=CARTESIAN_POINT('',(0.,0.,3.5));
#264=CARTESIAN_POINT('',(3.110466202999,1.025,3.5));
#265=CARTESIAN_POINT('',(3.110466202999,1.025,3.5));
#266=CARTESIAN_POINT('',(0.,0.,3.5));
#267=CARTESIAN_POINT('',(3.110466202999,1.025,0.78));
#268=CARTESIAN_POINT('',(3.110466202999,1.025,0.78));
#269=CARTESIAN_POINT('',(3.477067730143,1.025,0.1737822173509));
#270=CARTESIAN_POINT('',(3.434849080912,1.025,0.2439229181898));
#271=CARTESIAN_POINT('',(3.351404980065,1.025,0.3823499548309));
#272=CARTESIAN_POINT('',(3.229238522003,1.025,0.5843758790213));
#273=CARTESIAN_POINT('',(3.149731890897,1.025,0.7154066185806));
#274=CARTESIAN_POINT('',(3.110466202999,1.025,0.78));
#275=CARTESIAN_POINT('',(3.477067730143,1.025,0.1737822173509));
#276=CARTESIAN_POINT('',(3.477067730143,1.025,0.1737822173509));
#277=CARTESIAN_POINT('',(3.440914419843,1.025,0.1537609031667));
#278=CARTESIAN_POINT('',(3.369373640712,1.025,0.1141923285347));
#279=CARTESIAN_POINT('',(3.264377046184,1.025,0.05627436336999));
#280=CARTESIAN_POINT('',(3.195884473666,1.025,0.01860036195646));
#281=CARTESIAN_POINT('',(3.162017308681,1.025,0.));
#282=CARTESIAN_POINT('',(-3.477067730143,1.025,0.));
#283=CARTESIAN_POINT('',(-3.162017308681,1.025,0.));
#284=CARTESIAN_POINT('',(-3.195869109323,1.025,0.01859192362582));
#285=CARTESIAN_POINT('',(-3.264341206682,1.025,0.05625462915339));
#286=CARTESIAN_POINT('',(-3.369336914409,1.025,0.1141720341781));
#287=CARTESIAN_POINT('',(-3.440898683447,1.025,0.1537521885195));
#288=CARTESIAN_POINT('',(-3.477067730143,1.025,0.1737822173509));
#289=CARTESIAN_POINT('',(-3.477067730143,1.025,0.1737822173509));
#290=CARTESIAN_POINT('',(-3.110466202999,1.025,0.78));
#291=CARTESIAN_POINT('',(-3.149705871466,1.025,0.7154494214221));
#292=CARTESIAN_POINT('',(-3.229177927794,1.025,0.584475869098));
#293=CARTESIAN_POINT('',(-3.351342865994,1.025,0.3824528863121));
#294=CARTESIAN_POINT('',(-3.434822501818,1.025,0.243967075839));
#295=CARTESIAN_POINT('',(-3.477067730143,1.025,0.1737822173509));
#296=CARTESIAN_POINT('',(-3.110466202999,1.025,0.78));
#297=CARTESIAN_POINT('',(-3.110466202999,1.025,0.78));
#298=CARTESIAN_POINT('',(-3.477067730143,1.025,0.));
#299=CARTESIAN_POINT('',(0.,0.,0.1737822173509));
#300=CARTESIAN_POINT('',(0.,0.,0.08689110867545));
#301=CARTESIAN_POINT('',(0.,0.,0.78));
#302=CARTESIAN_POINT('',(0.,0.,0.4768911086754));
#303=CARTESIAN_POINT('',(0.,0.,-0.175));
#304=MECHANICAL_DESIGN_GEOMETRIC_PRESENTATION_REPRESENTATION('',(#164,#165,
#166,#167),#305);
#305=(
GEOMETRIC_REPRESENTATION_CONTEXT(3)
GLOBAL_UNCERTAINTY_ASSIGNED_CONTEXT((#306))
GLOBAL_UNIT_ASSIGNED_CONTEXT((#312,#308,#307))
REPRESENTATION_CONTEXT('HLS3','TOP_LEVEL_ASSEMBLY_PART')
);
#306=UNCERTAINTY_MEASURE_WITH_UNIT(LENGTH_MEASURE(2.E-5),#312,
'DISTANCE_ACCURACY_VALUE','Maximum Tolerance applied to model');
#307=(
NAMED_UNIT(*)
SI_UNIT($,.STERADIAN.)
SOLID_ANGLE_UNIT()
);
#308=(
CONVERSION_BASED_UNIT('DEGREE',#310)
NAMED_UNIT(#309)
PLANE_ANGLE_UNIT()
);
#309=DIMENSIONAL_EXPONENTS(0.,0.,0.,0.,0.,0.,0.);
#310=PLANE_ANGLE_MEASURE_WITH_UNIT(PLANE_ANGLE_MEASURE(0.0174532925),#311);
#311=(
NAMED_UNIT(*)
PLANE_ANGLE_UNIT()
SI_UNIT($,.RADIAN.)
);
#312=(
LENGTH_UNIT()
NAMED_UNIT(*)
SI_UNIT(.MILLI.,.METRE.)
);
ENDSEC;
END-ISO-10303-21;
