ISO-10303-21;
HEADER;
/* Generated by software containing ST-Developer
 * from STEP Tools, Inc. (www.steptools.com) 
 */
/* OPTION: using custom schema-name function */

FILE_DESCRIPTION(
/* description */ (''),
/* implementation_level */ '2;1');

FILE_NAME(
/* name */ 'HSD05004S.stp',
/* time_stamp */ '2022-02-03T10:43:21+09:00',
/* author */ (''),
/* organization */ (''),
/* preprocessor_version */ 'ST-DEVELOPER v16',
/* originating_system */ 'SIEMENS PLM Software NX 10.0',
/* authorisation */ '');

FILE_SCHEMA (('AUTOMOTIVE_DESIGN { 1 0 10303 214 3 1 1 1 }'));
ENDSEC;

DATA;
#10=CONSTRUCTIVE_GEOMETRY_REPRESENTATION_RELATIONSHIP(
'supplemental geometry','',#26,#11);
#11=CONSTRUCTIVE_GEOMETRY_REPRESENTATION('supplemental geometry',(#288,
#289),#461);
#12=GEOMETRICALLY_BOUNDED_WIREFRAME_SHAPE_REPRESENTATION(
'HSD05004S-None',(#27),#461);
#13=SHAPE_REPRESENTATION_RELATIONSHIP('None',
'relationship between HSD05004S-None and HSD05004S-None',#26,#15);
#14=SHAPE_REPRESENTATION_RELATIONSHIP('None',
'relationship between HSD05004S-None and HSD05004S-None',#26,#12);
#15=ADVANCED_BREP_SHAPE_REPRESENTATION('HSD05004S-None',(#33),#461);
#16=SHAPE_DEFINITION_REPRESENTATION(#17,#26);
#17=PRODUCT_DEFINITION_SHAPE('','',#18);
#18=PRODUCT_DEFINITION('part definition','',#20,#19);
#19=PRODUCT_DEFINITION_CONTEXT('part definition',#25,'design');
#20=PRODUCT_DEFINITION_FORMATION_WITH_SPECIFIED_SOURCE(' ',' ',#22,
 .NOT_KNOWN.);
#21=PRODUCT_RELATED_PRODUCT_CATEGORY('part','',(#22));
#22=PRODUCT('HSD05004S','HSD05004S','NOT SPECIFIED',(#23));
#23=PRODUCT_CONTEXT('',#25,'mechanical');
#24=APPLICATION_PROTOCOL_DEFINITION('international standard',
'automotive_design',2010,#25);
#25=APPLICATION_CONTEXT(
'core data for automotive mechanical design processes');
#26=SHAPE_REPRESENTATION('HSD05004S-None',(#287),#461);
#27=GEOMETRIC_CURVE_SET('None',(#390));
#28=SURFACE_STYLE_USAGE(.BOTH.,#29);
#29=SURFACE_SIDE_STYLE('',(#30));
#30=SURFACE_STYLE_FILL_AREA(#31);
#31=FILL_AREA_STYLE('',(#32));
#32=FILL_AREA_STYLE_COLOUR('',#270);
#33=MANIFOLD_SOLID_BREP('',#34);
#34=CLOSED_SHELL('',(#91,#92,#93,#94,#95,#96,#97,#98,#99,#100,#101,#102,
#103,#104,#105));
#35=FACE_BOUND('',#136,.T.);
#36=FACE_BOUND('',#137,.T.);
#37=CYLINDRICAL_SURFACE('',#298,2.5);
#38=CYLINDRICAL_SURFACE('',#300,2.5);
#39=CONICAL_SURFACE('',#294,2.25,45.);
#40=CONICAL_SURFACE('',#296,2.25,45.);
#41=CONICAL_SURFACE('',#302,2.066987298108,60.);
#42=CONICAL_SURFACE('',#304,2.066987298108,60.);
#43=LINE('',#398,#67);
#44=LINE('',#402,#68);
#45=LINE('',#409,#69);
#46=LINE('',#410,#70);
#47=LINE('',#414,#71);
#48=LINE('',#418,#72);
#49=LINE('',#422,#73);
#50=LINE('',#425,#74);
#51=LINE('',#427,#75);
#52=LINE('',#429,#76);
#53=LINE('',#431,#77);
#54=LINE('',#433,#78);
#55=LINE('',#435,#79);
#56=LINE('',#437,#80);
#57=LINE('',#439,#81);
#58=LINE('',#441,#82);
#59=LINE('',#443,#83);
#60=LINE('',#445,#84);
#61=LINE('',#447,#85);
#62=LINE('',#449,#86);
#63=LINE('',#451,#87);
#64=LINE('',#453,#88);
#65=LINE('',#455,#89);
#66=LINE('',#457,#90);
#67=VECTOR('',#325,1.);
#68=VECTOR('',#328,1.);
#69=VECTOR('',#337,1.);
#70=VECTOR('',#338,1.);
#71=VECTOR('',#345,1.);
#72=VECTOR('',#348,1.);
#73=VECTOR('',#355,1.);
#74=VECTOR('',#356,1.);
#75=VECTOR('',#357,1.);
#76=VECTOR('',#358,1.);
#77=VECTOR('',#359,1.);
#78=VECTOR('',#360,1.);
#79=VECTOR('',#363,1.);
#80=VECTOR('',#364,1.);
#81=VECTOR('',#365,1.);
#82=VECTOR('',#368,1.);
#83=VECTOR('',#369,1.);
#84=VECTOR('',#372,1.);
#85=VECTOR('',#373,1.);
#86=VECTOR('',#376,1.);
#87=VECTOR('',#377,1.);
#88=VECTOR('',#380,1.);
#89=VECTOR('',#381,1.);
#90=VECTOR('',#384,1.);
#91=ADVANCED_FACE('',(#115),#106,.T.);
#92=ADVANCED_FACE('',(#116),#39,.T.);
#93=ADVANCED_FACE('',(#117),#40,.T.);
#94=ADVANCED_FACE('',(#118),#37,.T.);
#95=ADVANCED_FACE('',(#119),#38,.T.);
#96=ADVANCED_FACE('',(#120),#41,.T.);
#97=ADVANCED_FACE('',(#121),#42,.T.);
#98=ADVANCED_FACE('',(#35,#36),#107,.F.);
#99=ADVANCED_FACE('',(#122),#108,.F.);
#100=ADVANCED_FACE('',(#123),#109,.F.);
#101=ADVANCED_FACE('',(#124),#110,.F.);
#102=ADVANCED_FACE('',(#125),#111,.F.);
#103=ADVANCED_FACE('',(#126),#112,.F.);
#104=ADVANCED_FACE('',(#127),#113,.F.);
#105=ADVANCED_FACE('',(#128),#114,.T.);
#106=PLANE('',#292);
#107=PLANE('',#305);
#108=PLANE('',#306);
#109=PLANE('',#307);
#110=PLANE('',#308);
#111=PLANE('',#309);
#112=PLANE('',#310);
#113=PLANE('',#311);
#114=PLANE('',#312);
#115=FACE_OUTER_BOUND('',#129,.T.);
#116=FACE_OUTER_BOUND('',#130,.T.);
#117=FACE_OUTER_BOUND('',#131,.T.);
#118=FACE_OUTER_BOUND('',#132,.T.);
#119=FACE_OUTER_BOUND('',#133,.T.);
#120=FACE_OUTER_BOUND('',#134,.T.);
#121=FACE_OUTER_BOUND('',#135,.T.);
#122=FACE_OUTER_BOUND('',#138,.T.);
#123=FACE_OUTER_BOUND('',#139,.T.);
#124=FACE_OUTER_BOUND('',#140,.T.);
#125=FACE_OUTER_BOUND('',#141,.T.);
#126=FACE_OUTER_BOUND('',#142,.T.);
#127=FACE_OUTER_BOUND('',#143,.T.);
#128=FACE_OUTER_BOUND('',#144,.T.);
#129=EDGE_LOOP('',(#145,#146));
#130=EDGE_LOOP('',(#147,#148,#149,#150));
#131=EDGE_LOOP('',(#151,#152,#153,#154));
#132=EDGE_LOOP('',(#155,#156,#157,#158));
#133=EDGE_LOOP('',(#159,#160,#161,#162));
#134=EDGE_LOOP('',(#163,#164,#165,#166));
#135=EDGE_LOOP('',(#167,#168,#169,#170));
#136=EDGE_LOOP('',(#171,#172));
#137=EDGE_LOOP('',(#173,#174,#175,#176,#177,#178));
#138=EDGE_LOOP('',(#179,#180,#181,#182));
#139=EDGE_LOOP('',(#183,#184,#185,#186));
#140=EDGE_LOOP('',(#187,#188,#189,#190));
#141=EDGE_LOOP('',(#191,#192,#193,#194));
#142=EDGE_LOOP('',(#195,#196,#197,#198));
#143=EDGE_LOOP('',(#199,#200,#201,#202));
#144=EDGE_LOOP('',(#203,#204,#205,#206,#207,#208));
#145=ORIENTED_EDGE('',*,*,#229,.T.);
#146=ORIENTED_EDGE('',*,*,#230,.F.);
#147=ORIENTED_EDGE('',*,*,#230,.T.);
#148=ORIENTED_EDGE('',*,*,#231,.F.);
#149=ORIENTED_EDGE('',*,*,#232,.F.);
#150=ORIENTED_EDGE('',*,*,#233,.T.);
#151=ORIENTED_EDGE('',*,*,#234,.T.);
#152=ORIENTED_EDGE('',*,*,#231,.T.);
#153=ORIENTED_EDGE('',*,*,#229,.F.);
#154=ORIENTED_EDGE('',*,*,#233,.F.);
#155=ORIENTED_EDGE('',*,*,#235,.T.);
#156=ORIENTED_EDGE('',*,*,#236,.F.);
#157=ORIENTED_EDGE('',*,*,#234,.F.);
#158=ORIENTED_EDGE('',*,*,#237,.T.);
#159=ORIENTED_EDGE('',*,*,#232,.T.);
#160=ORIENTED_EDGE('',*,*,#236,.T.);
#161=ORIENTED_EDGE('',*,*,#238,.F.);
#162=ORIENTED_EDGE('',*,*,#237,.F.);
#163=ORIENTED_EDGE('',*,*,#238,.T.);
#164=ORIENTED_EDGE('',*,*,#239,.F.);
#165=ORIENTED_EDGE('',*,*,#240,.F.);
#166=ORIENTED_EDGE('',*,*,#241,.T.);
#167=ORIENTED_EDGE('',*,*,#242,.T.);
#168=ORIENTED_EDGE('',*,*,#239,.T.);
#169=ORIENTED_EDGE('',*,*,#235,.F.);
#170=ORIENTED_EDGE('',*,*,#241,.F.);
#171=ORIENTED_EDGE('',*,*,#242,.F.);
#172=ORIENTED_EDGE('',*,*,#240,.T.);
#173=ORIENTED_EDGE('',*,*,#243,.F.);
#174=ORIENTED_EDGE('',*,*,#244,.F.);
#175=ORIENTED_EDGE('',*,*,#245,.F.);
#176=ORIENTED_EDGE('',*,*,#246,.F.);
#177=ORIENTED_EDGE('',*,*,#247,.F.);
#178=ORIENTED_EDGE('',*,*,#248,.F.);
#179=ORIENTED_EDGE('',*,*,#249,.T.);
#180=ORIENTED_EDGE('',*,*,#250,.F.);
#181=ORIENTED_EDGE('',*,*,#251,.F.);
#182=ORIENTED_EDGE('',*,*,#248,.T.);
#183=ORIENTED_EDGE('',*,*,#251,.T.);
#184=ORIENTED_EDGE('',*,*,#252,.F.);
#185=ORIENTED_EDGE('',*,*,#253,.F.);
#186=ORIENTED_EDGE('',*,*,#243,.T.);
#187=ORIENTED_EDGE('',*,*,#253,.T.);
#188=ORIENTED_EDGE('',*,*,#254,.F.);
#189=ORIENTED_EDGE('',*,*,#255,.F.);
#190=ORIENTED_EDGE('',*,*,#244,.T.);
#191=ORIENTED_EDGE('',*,*,#255,.T.);
#192=ORIENTED_EDGE('',*,*,#256,.F.);
#193=ORIENTED_EDGE('',*,*,#257,.F.);
#194=ORIENTED_EDGE('',*,*,#245,.T.);
#195=ORIENTED_EDGE('',*,*,#257,.T.);
#196=ORIENTED_EDGE('',*,*,#258,.F.);
#197=ORIENTED_EDGE('',*,*,#259,.F.);
#198=ORIENTED_EDGE('',*,*,#246,.T.);
#199=ORIENTED_EDGE('',*,*,#259,.T.);
#200=ORIENTED_EDGE('',*,*,#260,.F.);
#201=ORIENTED_EDGE('',*,*,#249,.F.);
#202=ORIENTED_EDGE('',*,*,#247,.T.);
#203=ORIENTED_EDGE('',*,*,#260,.T.);
#204=ORIENTED_EDGE('',*,*,#258,.T.);
#205=ORIENTED_EDGE('',*,*,#256,.T.);
#206=ORIENTED_EDGE('',*,*,#254,.T.);
#207=ORIENTED_EDGE('',*,*,#252,.T.);
#208=ORIENTED_EDGE('',*,*,#250,.T.);
#209=VERTEX_POINT('',#394);
#210=VERTEX_POINT('',#395);
#211=VERTEX_POINT('',#399);
#212=VERTEX_POINT('',#401);
#213=VERTEX_POINT('',#407);
#214=VERTEX_POINT('',#408);
#215=VERTEX_POINT('',#415);
#216=VERTEX_POINT('',#417);
#217=VERTEX_POINT('',#423);
#218=VERTEX_POINT('',#424);
#219=VERTEX_POINT('',#426);
#220=VERTEX_POINT('',#428);
#221=VERTEX_POINT('',#430);
#222=VERTEX_POINT('',#432);
#223=VERTEX_POINT('',#436);
#224=VERTEX_POINT('',#438);
#225=VERTEX_POINT('',#442);
#226=VERTEX_POINT('',#446);
#227=VERTEX_POINT('',#450);
#228=VERTEX_POINT('',#454);
#229=EDGE_CURVE('',#209,#210,#261,.T.);
#230=EDGE_CURVE('',#209,#210,#262,.T.);
#231=EDGE_CURVE('',#211,#210,#43,.T.);
#232=EDGE_CURVE('',#212,#211,#263,.T.);
#233=EDGE_CURVE('',#212,#209,#44,.T.);
#234=EDGE_CURVE('',#212,#211,#264,.T.);
#235=EDGE_CURVE('',#213,#214,#265,.T.);
#236=EDGE_CURVE('',#211,#214,#45,.T.);
#237=EDGE_CURVE('',#212,#213,#46,.T.);
#238=EDGE_CURVE('',#213,#214,#266,.T.);
#239=EDGE_CURVE('',#215,#214,#47,.T.);
#240=EDGE_CURVE('',#216,#215,#267,.T.);
#241=EDGE_CURVE('',#216,#213,#48,.T.);
#242=EDGE_CURVE('',#216,#215,#268,.T.);
#243=EDGE_CURVE('',#217,#218,#49,.T.);
#244=EDGE_CURVE('',#219,#217,#50,.T.);
#245=EDGE_CURVE('',#220,#219,#51,.T.);
#246=EDGE_CURVE('',#221,#220,#52,.T.);
#247=EDGE_CURVE('',#222,#221,#53,.T.);
#248=EDGE_CURVE('',#218,#222,#54,.T.);
#249=EDGE_CURVE('',#222,#223,#55,.T.);
#250=EDGE_CURVE('',#224,#223,#56,.T.);
#251=EDGE_CURVE('',#218,#224,#57,.T.);
#252=EDGE_CURVE('',#225,#224,#58,.T.);
#253=EDGE_CURVE('',#217,#225,#59,.T.);
#254=EDGE_CURVE('',#226,#225,#60,.T.);
#255=EDGE_CURVE('',#219,#226,#61,.T.);
#256=EDGE_CURVE('',#227,#226,#62,.T.);
#257=EDGE_CURVE('',#220,#227,#63,.T.);
#258=EDGE_CURVE('',#228,#227,#64,.T.);
#259=EDGE_CURVE('',#221,#228,#65,.T.);
#260=EDGE_CURVE('',#223,#228,#66,.T.);
#261=CIRCLE('',#290,2.);
#262=CIRCLE('',#291,2.);
#263=CIRCLE('',#293,2.5);
#264=CIRCLE('',#295,2.5);
#265=CIRCLE('',#297,2.5);
#266=CIRCLE('',#299,2.5);
#267=CIRCLE('',#301,1.633974596216);
#268=CIRCLE('',#303,1.633974596216);
#269=COLOUR_RGB('Strong Stone',0.576470588235294,0.54508278019379,0.392156862745098);
#270=COLOUR_RGB('spare part',0.301960784313725,0.301960784313725,0.301960784313725);
#271=CURVE_STYLE('',#273,POSITIVE_LENGTH_MEASURE(0.13),#286);
#272=CURVE_STYLE('',#274,POSITIVE_LENGTH_MEASURE(0.13),#269);
#273=DRAUGHTING_PRE_DEFINED_CURVE_FONT('continuous');
#274=DRAUGHTING_PRE_DEFINED_CURVE_FONT('continuous');
#275=PRESENTATION_LAYER_ASSIGNMENT('1','Layer 1',(#390,#288,#289,#33));
#276=STYLED_ITEM('',(#280),#390);
#277=STYLED_ITEM('',(#281),#288);
#278=STYLED_ITEM('',(#282),#289);
#279=STYLED_ITEM('',(#283),#33);
#280=PRESENTATION_STYLE_ASSIGNMENT((#284));
#281=PRESENTATION_STYLE_ASSIGNMENT((#271));
#282=PRESENTATION_STYLE_ASSIGNMENT((#272));
#283=PRESENTATION_STYLE_ASSIGNMENT((#28));
#284=POINT_STYLE('',#285,POSITIVE_LENGTH_MEASURE(3.),#286);
#285=PRE_DEFINED_POINT_MARKER_SYMBOL('plus');
#286=DRAUGHTING_PRE_DEFINED_COLOUR('yellow');
#287=AXIS2_PLACEMENT_3D('',#389,#313,#314);
#288=AXIS2_PLACEMENT_3D('PCS',#391,#315,#316);
#289=AXIS2_PLACEMENT_3D('',#392,#317,#318);
#290=AXIS2_PLACEMENT_3D('',#393,#319,#320);
#291=AXIS2_PLACEMENT_3D('',#396,#321,#322);
#292=AXIS2_PLACEMENT_3D('',#397,#323,#324);
#293=AXIS2_PLACEMENT_3D('',#400,#326,#327);
#294=AXIS2_PLACEMENT_3D('',#403,#329,#330);
#295=AXIS2_PLACEMENT_3D('',#404,#331,#332);
#296=AXIS2_PLACEMENT_3D('',#405,#333,#334);
#297=AXIS2_PLACEMENT_3D('',#406,#335,#336);
#298=AXIS2_PLACEMENT_3D('',#411,#339,#340);
#299=AXIS2_PLACEMENT_3D('',#412,#341,#342);
#300=AXIS2_PLACEMENT_3D('',#413,#343,#344);
#301=AXIS2_PLACEMENT_3D('',#416,#346,#347);
#302=AXIS2_PLACEMENT_3D('',#419,#349,#350);
#303=AXIS2_PLACEMENT_3D('',#420,#351,#352);
#304=AXIS2_PLACEMENT_3D('',#421,#353,#354);
#305=AXIS2_PLACEMENT_3D('',#434,#361,#362);
#306=AXIS2_PLACEMENT_3D('',#440,#366,#367);
#307=AXIS2_PLACEMENT_3D('',#444,#370,#371);
#308=AXIS2_PLACEMENT_3D('',#448,#374,#375);
#309=AXIS2_PLACEMENT_3D('',#452,#378,#379);
#310=AXIS2_PLACEMENT_3D('',#456,#382,#383);
#311=AXIS2_PLACEMENT_3D('',#458,#385,#386);
#312=AXIS2_PLACEMENT_3D('',#459,#387,#388);
#313=DIRECTION('',(0.,0.,1.));
#314=DIRECTION('',(1.,0.,0.));
#315=DIRECTION('',(0.,0.,1.));
#316=DIRECTION('',(1.,0.,0.));
#317=DIRECTION('',(0.,0.,1.));
#318=DIRECTION('',(1.,0.,0.));
#319=DIRECTION('',(0.,0.,1.));
#320=DIRECTION('',(0.,-1.,0.));
#321=DIRECTION('',(0.,0.,-1.));
#322=DIRECTION('',(0.,-1.,0.));
#323=DIRECTION('',(0.,0.,1.));
#324=DIRECTION('',(0.,-1.,0.));
#325=DIRECTION('',(0.,-0.707106781186547,0.707106781186547));
#326=DIRECTION('',(0.,0.,-1.));
#327=DIRECTION('',(0.,-1.,0.));
#328=DIRECTION('',(0.,0.707106781186547,0.707106781186547));
#329=DIRECTION('',(0.,0.,-1.));
#330=DIRECTION('',(0.,1.,3.11549239886082E-17));
#331=DIRECTION('',(0.,0.,1.));
#332=DIRECTION('',(0.,-1.,0.));
#333=DIRECTION('',(0.,0.,-1.));
#334=DIRECTION('',(0.,1.,3.11549239886082E-17));
#335=DIRECTION('',(0.,0.,1.));
#336=DIRECTION('',(0.,-1.,0.));
#337=DIRECTION('',(0.,0.,-1.));
#338=DIRECTION('',(0.,0.,-1.));
#339=DIRECTION('',(0.,0.,1.));
#340=DIRECTION('',(0.,-1.,0.));
#341=DIRECTION('',(0.,0.,-1.));
#342=DIRECTION('',(0.,-1.,0.));
#343=DIRECTION('',(0.,0.,1.));
#344=DIRECTION('',(0.,-1.,0.));
#345=DIRECTION('',(0.,0.866025403784429,0.500000000000017));
#346=DIRECTION('',(0.,0.,-1.));
#347=DIRECTION('',(0.,-1.,0.));
#348=DIRECTION('',(0.,-0.866025403784429,0.500000000000017));
#349=DIRECTION('',(0.,0.,1.));
#350=DIRECTION('',(0.,-1.,4.81418087793669E-17));
#351=DIRECTION('',(0.,0.,1.));
#352=DIRECTION('',(0.,-1.,0.));
#353=DIRECTION('',(0.,0.,1.));
#354=DIRECTION('',(0.,-1.,4.81418087793669E-17));
#355=DIRECTION('',(-0.500000000000017,0.866025403784429,0.));
#356=DIRECTION('',(-1.,0.,0.));
#357=DIRECTION('',(-0.500000000000017,-0.866025403784429,0.));
#358=DIRECTION('',(0.500000000000017,-0.866025403784429,0.));
#359=DIRECTION('',(1.,0.,0.));
#360=DIRECTION('',(0.500000000000017,0.866025403784429,0.));
#361=DIRECTION('',(0.,0.,1.));
#362=DIRECTION('',(0.,-1.,0.));
#363=DIRECTION('',(0.,0.,1.));
#364=DIRECTION('',(0.500000000000017,0.866025403784429,0.));
#365=DIRECTION('',(0.,0.,1.));
#366=DIRECTION('',(-0.866025403784429,0.500000000000017,0.));
#367=DIRECTION('',(-0.500000000000017,-0.866025403784429,0.));
#368=DIRECTION('',(-0.500000000000017,0.866025403784429,0.));
#369=DIRECTION('',(0.,0.,1.));
#370=DIRECTION('',(-0.866025403784429,-0.500000000000017,0.));
#371=DIRECTION('',(0.500000000000017,-0.866025403784429,0.));
#372=DIRECTION('',(-1.,0.,0.));
#373=DIRECTION('',(0.,0.,1.));
#374=DIRECTION('',(0.,-1.,0.));
#375=DIRECTION('',(1.,0.,0.));
#376=DIRECTION('',(-0.500000000000017,-0.866025403784429,0.));
#377=DIRECTION('',(0.,0.,1.));
#378=DIRECTION('',(0.866025403784429,-0.500000000000017,0.));
#379=DIRECTION('',(0.500000000000017,0.866025403784429,0.));
#380=DIRECTION('',(0.500000000000017,-0.866025403784429,0.));
#381=DIRECTION('',(0.,0.,1.));
#382=DIRECTION('',(0.866025403784429,0.500000000000017,0.));
#383=DIRECTION('',(-0.500000000000017,0.866025403784429,0.));
#384=DIRECTION('',(1.,0.,0.));
#385=DIRECTION('',(0.,1.,0.));
#386=DIRECTION('',(-1.,0.,0.));
#387=DIRECTION('',(0.,0.,-1.));
#388=DIRECTION('',(0.,1.,0.));
#389=CARTESIAN_POINT('',(0.,0.,0.));
#390=CARTESIAN_POINT('',(0.,0.,0.));
#391=CARTESIAN_POINT('',(0.,0.,0.));
#392=CARTESIAN_POINT('',(0.,0.,0.));
#393=CARTESIAN_POINT('',(0.,0.,4.));
#394=CARTESIAN_POINT('',(0.,-2.,4.));
#395=CARTESIAN_POINT('',(0.,2.,4.));
#396=CARTESIAN_POINT('',(0.,0.,4.));
#397=CARTESIAN_POINT('',(0.,0.,4.));
#398=CARTESIAN_POINT('',(0.,2.,4.));
#399=CARTESIAN_POINT('',(0.,2.5,3.5));
#400=CARTESIAN_POINT('',(0.,0.,3.5));
#401=CARTESIAN_POINT('',(0.,-2.5,3.5));
#402=CARTESIAN_POINT('',(0.,-2.,4.));
#403=CARTESIAN_POINT('',(0.,0.,3.75));
#404=CARTESIAN_POINT('',(0.,0.,3.5));
#405=CARTESIAN_POINT('',(0.,0.,3.75));
#406=CARTESIAN_POINT('',(0.,0.,0.5));
#407=CARTESIAN_POINT('',(0.,-2.5,0.5));
#408=CARTESIAN_POINT('',(0.,2.5,0.5));
#409=CARTESIAN_POINT('',(0.,2.5,3.5));
#410=CARTESIAN_POINT('',(0.,-2.5,3.5));
#411=CARTESIAN_POINT('',(0.,0.,-0.2));
#412=CARTESIAN_POINT('',(0.,0.,0.5));
#413=CARTESIAN_POINT('',(0.,0.,-0.2));
#414=CARTESIAN_POINT('',(0.,2.5,0.5));
#415=CARTESIAN_POINT('',(0.,1.633974596216,0.));
#416=CARTESIAN_POINT('',(0.,0.,0.));
#417=CARTESIAN_POINT('',(0.,-1.633974596216,0.));
#418=CARTESIAN_POINT('',(0.,-2.5,0.5));
#419=CARTESIAN_POINT('',(0.,0.,0.25));
#420=CARTESIAN_POINT('',(0.,0.,0.));
#421=CARTESIAN_POINT('',(0.,0.,0.25));
#422=CARTESIAN_POINT('',(-0.721687836487,-1.25,0.));
#423=CARTESIAN_POINT('',(-0.721687836487,-1.25,0.));
#424=CARTESIAN_POINT('',(-1.443375672974,0.,0.));
#425=CARTESIAN_POINT('',(0.721687836487,-1.25,0.));
#426=CARTESIAN_POINT('',(0.721687836487,-1.25,0.));
#427=CARTESIAN_POINT('',(1.443375672974,0.,0.));
#428=CARTESIAN_POINT('',(1.443375672974,0.,0.));
#429=CARTESIAN_POINT('',(0.721687836487,1.25,0.));
#430=CARTESIAN_POINT('',(0.721687836487,1.25,0.));
#431=CARTESIAN_POINT('',(-0.721687836487,1.25,0.));
#432=CARTESIAN_POINT('',(-0.721687836487,1.25,0.));
#433=CARTESIAN_POINT('',(-1.443375672974,0.,0.));
#434=CARTESIAN_POINT('',(0.,0.,0.));
#435=CARTESIAN_POINT('',(-0.721687836487,1.25,0.));
#436=CARTESIAN_POINT('',(-0.721687836487,1.25,1.5));
#437=CARTESIAN_POINT('',(-1.443375672974,0.,1.5));
#438=CARTESIAN_POINT('',(-1.443375672974,0.,1.5));
#439=CARTESIAN_POINT('',(-1.443375672974,0.,0.));
#440=CARTESIAN_POINT('',(-1.443375672974,0.,0.));
#441=CARTESIAN_POINT('',(-0.721687836487,-1.25,1.5));
#442=CARTESIAN_POINT('',(-0.721687836487,-1.25,1.5));
#443=CARTESIAN_POINT('',(-0.721687836487,-1.25,0.));
#444=CARTESIAN_POINT('',(-0.721687836487,-1.25,0.));
#445=CARTESIAN_POINT('',(0.721687836487,-1.25,1.5));
#446=CARTESIAN_POINT('',(0.721687836487,-1.25,1.5));
#447=CARTESIAN_POINT('',(0.721687836487,-1.25,0.));
#448=CARTESIAN_POINT('',(0.721687836487,-1.25,0.));
#449=CARTESIAN_POINT('',(1.443375672974,0.,1.5));
#450=CARTESIAN_POINT('',(1.443375672974,0.,1.5));
#451=CARTESIAN_POINT('',(1.443375672974,0.,0.));
#452=CARTESIAN_POINT('',(1.443375672974,0.,0.));
#453=CARTESIAN_POINT('',(0.721687836487,1.25,1.5));
#454=CARTESIAN_POINT('',(0.721687836487,1.25,1.5));
#455=CARTESIAN_POINT('',(0.721687836487,1.25,0.));
#456=CARTESIAN_POINT('',(0.721687836487,1.25,0.));
#457=CARTESIAN_POINT('',(-0.721687836487,1.25,1.5));
#458=CARTESIAN_POINT('',(-0.721687836487,1.25,0.));
#459=CARTESIAN_POINT('',(0.,0.,1.5));
#460=MECHANICAL_DESIGN_GEOMETRIC_PRESENTATION_REPRESENTATION('',(#276,#277,
#278,#279),#461);
#461=(
GEOMETRIC_REPRESENTATION_CONTEXT(3)
GLOBAL_UNCERTAINTY_ASSIGNED_CONTEXT((#462))
GLOBAL_UNIT_ASSIGNED_CONTEXT((#468,#464,#463))
REPRESENTATION_CONTEXT('HSD05004S','TOP_LEVEL_ASSEMBLY_PART')
);
#462=UNCERTAINTY_MEASURE_WITH_UNIT(LENGTH_MEASURE(2.E-5),#468,
'DISTANCE_ACCURACY_VALUE','Maximum Tolerance applied to model');
#463=(
NAMED_UNIT(*)
SI_UNIT($,.STERADIAN.)
SOLID_ANGLE_UNIT()
);
#464=(
CONVERSION_BASED_UNIT('DEGREE',#466)
NAMED_UNIT(#465)
PLANE_ANGLE_UNIT()
);
#465=DIMENSIONAL_EXPONENTS(0.,0.,0.,0.,0.,0.,0.);
#466=PLANE_ANGLE_MEASURE_WITH_UNIT(PLANE_ANGLE_MEASURE(0.0174532925),#467);
#467=(
NAMED_UNIT(*)
PLANE_ANGLE_UNIT()
SI_UNIT($,.RADIAN.)
);
#468=(
LENGTH_UNIT()
NAMED_UNIT(*)
SI_UNIT(.MILLI.,.METRE.)
);
ENDSEC;
END-ISO-10303-21;
