ISO-10303-21;
HEADER;
/* Generated by software containing ST-Developer
 * from STEP Tools, Inc. (www.steptools.com) 
 */
/* OPTION: using custom schema-name function */

FILE_DESCRIPTION(
/* description */ (''),
/* implementation_level */ '2;1');

FILE_NAME(
/* name */ 'LLSTP32.stp',
/* time_stamp */ '2022-02-03T10:33:03+09:00',
/* author */ (''),
/* organization */ (''),
/* preprocessor_version */ 'ST-DEVELOPER v16',
/* originating_system */ 'SIEMENS PLM Software NX 10.0',
/* authorisation */ '');

FILE_SCHEMA (('AUTOMOTIVE_DESIGN { 1 0 10303 214 3 1 1 1 }'));
ENDSEC;

DATA;
#10=CONSTRUCTIVE_GEOMETRY_REPRESENTATION_RELATIONSHIP(
'supplemental geometry','',#26,#11);
#11=CONSTRUCTIVE_GEOMETRY_REPRESENTATION('supplemental geometry',(#368,
#369),#607);
#12=GEOMETRICALLY_BOUNDED_WIREFRAME_SHAPE_REPRESENTATION('LLSTP32-None',
(#27),#607);
#13=SHAPE_REPRESENTATION_RELATIONSHIP('None',
'relationship between LLSTP32-None and LLSTP32-None',#26,#15);
#14=SHAPE_REPRESENTATION_RELATIONSHIP('None',
'relationship between LLSTP32-None and LLSTP32-None',#26,#12);
#15=ADVANCED_BREP_SHAPE_REPRESENTATION('LLSTP32-None',(#33),#607);
#16=SHAPE_DEFINITION_REPRESENTATION(#17,#26);
#17=PRODUCT_DEFINITION_SHAPE('','',#18);
#18=PRODUCT_DEFINITION('part definition','',#20,#19);
#19=PRODUCT_DEFINITION_CONTEXT('part definition',#25,'design');
#20=PRODUCT_DEFINITION_FORMATION_WITH_SPECIFIED_SOURCE(' ',' ',#22,
 .NOT_KNOWN.);
#21=PRODUCT_RELATED_PRODUCT_CATEGORY('part','',(#22));
#22=PRODUCT('LLSTP32','LLSTP32','NOT SPECIFIED',(#23));
#23=PRODUCT_CONTEXT('',#25,'mechanical');
#24=APPLICATION_PROTOCOL_DEFINITION('international standard',
'automotive_design',2010,#25);
#25=APPLICATION_CONTEXT(
'core data for automotive mechanical design processes');
#26=SHAPE_REPRESENTATION('LLSTP32-None',(#367),#607);
#27=GEOMETRIC_CURVE_SET('None',(#513));
#28=SURFACE_STYLE_USAGE(.BOTH.,#29);
#29=SURFACE_SIDE_STYLE('',(#30));
#30=SURFACE_STYLE_FILL_AREA(#31);
#31=FILL_AREA_STYLE('',(#32));
#32=FILL_AREA_STYLE_COLOUR('',#350);
#33=MANIFOLD_SOLID_BREP('',#34);
#34=CLOSED_SHELL('',(#65,#66,#67,#68,#69,#70,#71,#72,#73,#74,#75,#76,#77,
#78,#79,#80,#81,#82,#83,#84));
#35=CONICAL_SURFACE('',#380,0.5492494012123,11.);
#36=CONICAL_SURFACE('',#383,0.204,11.);
#37=CONICAL_SURFACE('',#389,0.9492494012123,11.);
#38=CONICAL_SURFACE('',#395,2.75,45.);
#39=CONICAL_SURFACE('',#397,2.75,45.);
#40=CONICAL_SURFACE('',#402,2.75,30.);
#41=CONICAL_SURFACE('',#403,2.75,30.);
#42=CYLINDRICAL_SURFACE('',#378,0.8);
#43=CYLINDRICAL_SURFACE('',#384,0.4);
#44=CYLINDRICAL_SURFACE('',#399,2.4);
#45=CYLINDRICAL_SURFACE('',#401,2.4);
#46=CYLINDRICAL_SURFACE('',#404,1.2);
#47=FACE_OUTER_BOUND('',#99,.T.);
#48=FACE_OUTER_BOUND('',#100,.T.);
#49=FACE_OUTER_BOUND('',#101,.T.);
#50=FACE_OUTER_BOUND('',#102,.T.);
#51=FACE_OUTER_BOUND('',#103,.T.);
#52=FACE_OUTER_BOUND('',#104,.T.);
#53=FACE_OUTER_BOUND('',#105,.T.);
#54=FACE_OUTER_BOUND('',#106,.T.);
#55=FACE_OUTER_BOUND('',#107,.T.);
#56=FACE_OUTER_BOUND('',#108,.T.);
#57=FACE_OUTER_BOUND('',#111,.T.);
#58=FACE_OUTER_BOUND('',#112,.T.);
#59=FACE_OUTER_BOUND('',#113,.T.);
#60=FACE_OUTER_BOUND('',#114,.T.);
#61=FACE_OUTER_BOUND('',#115,.T.);
#62=FACE_OUTER_BOUND('',#116,.T.);
#63=FACE_OUTER_BOUND('',#117,.T.);
#64=FACE_OUTER_BOUND('',#118,.T.);
#65=ADVANCED_FACE('',(#93,#94),#85,.T.);
#66=ADVANCED_FACE('',(#47),#86,.T.);
#67=ADVANCED_FACE('',(#48),#42,.T.);
#68=ADVANCED_FACE('',(#49),#35,.T.);
#69=ADVANCED_FACE('',(#50),#87,.T.);
#70=ADVANCED_FACE('',(#51),#36,.T.);
#71=ADVANCED_FACE('',(#52),#43,.T.);
#72=ADVANCED_FACE('',(#53),#88,.T.);
#73=ADVANCED_FACE('',(#54),#89,.T.);
#74=ADVANCED_FACE('',(#55),#37,.T.);
#75=ADVANCED_FACE('',(#56),#90,.T.);
#76=ADVANCED_FACE('',(#95,#96),#91,.F.);
#77=ADVANCED_FACE('',(#57),#38,.F.);
#78=ADVANCED_FACE('',(#58),#39,.F.);
#79=ADVANCED_FACE('',(#59),#44,.F.);
#80=ADVANCED_FACE('',(#60),#45,.F.);
#81=ADVANCED_FACE('',(#61),#40,.F.);
#82=ADVANCED_FACE('',(#62),#41,.F.);
#83=ADVANCED_FACE('',(#63),#46,.T.);
#84=ADVANCED_FACE('',(#64),#92,.T.);
#85=PLANE('',#375);
#86=PLANE('',#376);
#87=PLANE('',#381);
#88=PLANE('',#385);
#89=PLANE('',#386);
#90=PLANE('',#390);
#91=PLANE('',#393);
#92=PLANE('',#405);
#93=FACE_BOUND('',#97,.T.);
#94=FACE_BOUND('',#98,.T.);
#95=FACE_BOUND('',#109,.T.);
#96=FACE_BOUND('',#110,.T.);
#97=EDGE_LOOP('',(#175,#176,#177,#178,#179,#180));
#98=EDGE_LOOP('',(#181,#182));
#99=EDGE_LOOP('',(#183,#184,#185,#186));
#100=EDGE_LOOP('',(#187,#188,#189,#190));
#101=EDGE_LOOP('',(#191,#192,#193,#194));
#102=EDGE_LOOP('',(#195,#196,#197,#198,#199));
#103=EDGE_LOOP('',(#200,#201,#202));
#104=EDGE_LOOP('',(#203,#204,#205,#206));
#105=EDGE_LOOP('',(#207,#208,#209,#210));
#106=EDGE_LOOP('',(#211,#212,#213,#214,#215));
#107=EDGE_LOOP('',(#216,#217,#218,#219));
#108=EDGE_LOOP('',(#220,#221,#222,#223));
#109=EDGE_LOOP('',(#224,#225,#226,#227,#228));
#110=EDGE_LOOP('',(#229,#230));
#111=EDGE_LOOP('',(#231,#232,#233,#234));
#112=EDGE_LOOP('',(#235,#236,#237,#238));
#113=EDGE_LOOP('',(#239,#240,#241,#242));
#114=EDGE_LOOP('',(#243,#244,#245,#246));
#115=EDGE_LOOP('',(#247,#248,#249,#250));
#116=EDGE_LOOP('',(#251,#252,#253,#254));
#117=EDGE_LOOP('',(#255,#256,#257,#258));
#118=EDGE_LOOP('',(#259,#260,#261,#262));
#119=LINE('',#519,#147);
#120=LINE('',#523,#148);
#121=LINE('',#527,#149);
#122=LINE('',#533,#150);
#123=LINE('',#536,#151);
#124=LINE('',#537,#152);
#125=LINE('',#539,#153);
#126=LINE('',#546,#154);
#127=LINE('',#547,#155);
#128=LINE('',#549,#156);
#129=LINE('',#552,#157);
#130=LINE('',#553,#158);
#131=LINE('',#555,#159);
#132=LINE('',#557,#160);
#133=LINE('',#561,#161);
#134=LINE('',#562,#162);
#135=LINE('',#564,#163);
#136=LINE('',#566,#164);
#137=LINE('',#568,#165);
#138=LINE('',#570,#166);
#139=LINE('',#575,#167);
#140=LINE('',#577,#168);
#141=LINE('',#584,#169);
#142=LINE('',#588,#170);
#143=LINE('',#595,#171);
#144=LINE('',#596,#172);
#145=LINE('',#600,#173);
#146=LINE('',#601,#174);
#147=VECTOR('',#414,1.);
#148=VECTOR('',#417,1.);
#149=VECTOR('',#420,1.);
#150=VECTOR('',#427,1.);
#151=VECTOR('',#428,1.);
#152=VECTOR('',#429,1.);
#153=VECTOR('',#432,1.);
#154=VECTOR('',#439,1.);
#155=VECTOR('',#440,1.);
#156=VECTOR('',#443,1.);
#157=VECTOR('',#444,1.);
#158=VECTOR('',#445,1.);
#159=VECTOR('',#446,1.);
#160=VECTOR('',#449,1.);
#161=VECTOR('',#454,1.);
#162=VECTOR('',#455,1.);
#163=VECTOR('',#458,1.);
#164=VECTOR('',#459,1.);
#165=VECTOR('',#462,1.);
#166=VECTOR('',#463,1.);
#167=VECTOR('',#470,1.);
#168=VECTOR('',#473,1.);
#169=VECTOR('',#482,1.);
#170=VECTOR('',#485,1.);
#171=VECTOR('',#494,1.);
#172=VECTOR('',#495,1.);
#173=VECTOR('',#502,1.);
#174=VECTOR('',#503,1.);
#175=ORIENTED_EDGE('',*,*,#289,.T.);
#176=ORIENTED_EDGE('',*,*,#290,.T.);
#177=ORIENTED_EDGE('',*,*,#291,.T.);
#178=ORIENTED_EDGE('',*,*,#292,.T.);
#179=ORIENTED_EDGE('',*,*,#293,.T.);
#180=ORIENTED_EDGE('',*,*,#294,.T.);
#181=ORIENTED_EDGE('',*,*,#295,.F.);
#182=ORIENTED_EDGE('',*,*,#296,.F.);
#183=ORIENTED_EDGE('',*,*,#297,.T.);
#184=ORIENTED_EDGE('',*,*,#298,.F.);
#185=ORIENTED_EDGE('',*,*,#294,.F.);
#186=ORIENTED_EDGE('',*,*,#299,.T.);
#187=ORIENTED_EDGE('',*,*,#299,.F.);
#188=ORIENTED_EDGE('',*,*,#293,.F.);
#189=ORIENTED_EDGE('',*,*,#300,.T.);
#190=ORIENTED_EDGE('',*,*,#301,.T.);
#191=ORIENTED_EDGE('',*,*,#302,.T.);
#192=ORIENTED_EDGE('',*,*,#303,.F.);
#193=ORIENTED_EDGE('',*,*,#301,.F.);
#194=ORIENTED_EDGE('',*,*,#304,.T.);
#195=ORIENTED_EDGE('',*,*,#305,.T.);
#196=ORIENTED_EDGE('',*,*,#306,.F.);
#197=ORIENTED_EDGE('',*,*,#304,.F.);
#198=ORIENTED_EDGE('',*,*,#307,.F.);
#199=ORIENTED_EDGE('',*,*,#308,.T.);
#200=ORIENTED_EDGE('',*,*,#309,.T.);
#201=ORIENTED_EDGE('',*,*,#308,.F.);
#202=ORIENTED_EDGE('',*,*,#310,.F.);
#203=ORIENTED_EDGE('',*,*,#311,.F.);
#204=ORIENTED_EDGE('',*,*,#291,.F.);
#205=ORIENTED_EDGE('',*,*,#312,.T.);
#206=ORIENTED_EDGE('',*,*,#310,.T.);
#207=ORIENTED_EDGE('',*,*,#290,.F.);
#208=ORIENTED_EDGE('',*,*,#313,.T.);
#209=ORIENTED_EDGE('',*,*,#314,.T.);
#210=ORIENTED_EDGE('',*,*,#312,.F.);
#211=ORIENTED_EDGE('',*,*,#315,.T.);
#212=ORIENTED_EDGE('',*,*,#305,.F.);
#213=ORIENTED_EDGE('',*,*,#309,.F.);
#214=ORIENTED_EDGE('',*,*,#314,.F.);
#215=ORIENTED_EDGE('',*,*,#316,.T.);
#216=ORIENTED_EDGE('',*,*,#317,.T.);
#217=ORIENTED_EDGE('',*,*,#316,.F.);
#218=ORIENTED_EDGE('',*,*,#318,.F.);
#219=ORIENTED_EDGE('',*,*,#319,.T.);
#220=ORIENTED_EDGE('',*,*,#320,.T.);
#221=ORIENTED_EDGE('',*,*,#319,.F.);
#222=ORIENTED_EDGE('',*,*,#297,.F.);
#223=ORIENTED_EDGE('',*,*,#303,.T.);
#224=ORIENTED_EDGE('',*,*,#302,.F.);
#225=ORIENTED_EDGE('',*,*,#306,.T.);
#226=ORIENTED_EDGE('',*,*,#315,.F.);
#227=ORIENTED_EDGE('',*,*,#317,.F.);
#228=ORIENTED_EDGE('',*,*,#320,.F.);
#229=ORIENTED_EDGE('',*,*,#321,.T.);
#230=ORIENTED_EDGE('',*,*,#322,.T.);
#231=ORIENTED_EDGE('',*,*,#323,.T.);
#232=ORIENTED_EDGE('',*,*,#324,.F.);
#233=ORIENTED_EDGE('',*,*,#325,.F.);
#234=ORIENTED_EDGE('',*,*,#322,.F.);
#235=ORIENTED_EDGE('',*,*,#325,.T.);
#236=ORIENTED_EDGE('',*,*,#326,.T.);
#237=ORIENTED_EDGE('',*,*,#323,.F.);
#238=ORIENTED_EDGE('',*,*,#321,.F.);
#239=ORIENTED_EDGE('',*,*,#327,.T.);
#240=ORIENTED_EDGE('',*,*,#328,.T.);
#241=ORIENTED_EDGE('',*,*,#326,.F.);
#242=ORIENTED_EDGE('',*,*,#329,.F.);
#243=ORIENTED_EDGE('',*,*,#324,.T.);
#244=ORIENTED_EDGE('',*,*,#328,.F.);
#245=ORIENTED_EDGE('',*,*,#330,.F.);
#246=ORIENTED_EDGE('',*,*,#329,.T.);
#247=ORIENTED_EDGE('',*,*,#331,.F.);
#248=ORIENTED_EDGE('',*,*,#330,.T.);
#249=ORIENTED_EDGE('',*,*,#332,.T.);
#250=ORIENTED_EDGE('',*,*,#296,.T.);
#251=ORIENTED_EDGE('',*,*,#332,.F.);
#252=ORIENTED_EDGE('',*,*,#327,.F.);
#253=ORIENTED_EDGE('',*,*,#331,.T.);
#254=ORIENTED_EDGE('',*,*,#295,.T.);
#255=ORIENTED_EDGE('',*,*,#313,.F.);
#256=ORIENTED_EDGE('',*,*,#289,.F.);
#257=ORIENTED_EDGE('',*,*,#298,.T.);
#258=ORIENTED_EDGE('',*,*,#318,.T.);
#259=ORIENTED_EDGE('',*,*,#292,.F.);
#260=ORIENTED_EDGE('',*,*,#311,.T.);
#261=ORIENTED_EDGE('',*,*,#307,.T.);
#262=ORIENTED_EDGE('',*,*,#300,.F.);
#263=VERTEX_POINT('',#517);
#264=VERTEX_POINT('',#518);
#265=VERTEX_POINT('',#520);
#266=VERTEX_POINT('',#522);
#267=VERTEX_POINT('',#524);
#268=VERTEX_POINT('',#526);
#269=VERTEX_POINT('',#529);
#270=VERTEX_POINT('',#530);
#271=VERTEX_POINT('',#534);
#272=VERTEX_POINT('',#535);
#273=VERTEX_POINT('',#540);
#274=VERTEX_POINT('',#544);
#275=VERTEX_POINT('',#545);
#276=VERTEX_POINT('',#550);
#277=VERTEX_POINT('',#551);
#278=VERTEX_POINT('',#554);
#279=VERTEX_POINT('',#558);
#280=VERTEX_POINT('',#565);
#281=VERTEX_POINT('',#569);
#282=VERTEX_POINT('',#573);
#283=VERTEX_POINT('',#580);
#284=VERTEX_POINT('',#581);
#285=VERTEX_POINT('',#585);
#286=VERTEX_POINT('',#587);
#287=VERTEX_POINT('',#593);
#288=VERTEX_POINT('',#594);
#289=EDGE_CURVE('',#263,#264,#333,.T.);
#290=EDGE_CURVE('',#264,#265,#119,.T.);
#291=EDGE_CURVE('',#265,#266,#334,.T.);
#292=EDGE_CURVE('',#266,#267,#120,.T.);
#293=EDGE_CURVE('',#267,#268,#335,.T.);
#294=EDGE_CURVE('',#268,#263,#121,.T.);
#295=EDGE_CURVE('',#269,#270,#336,.T.);
#296=EDGE_CURVE('',#270,#269,#337,.T.);
#297=EDGE_CURVE('',#271,#272,#122,.T.);
#298=EDGE_CURVE('',#263,#272,#123,.T.);
#299=EDGE_CURVE('',#268,#271,#124,.T.);
#300=EDGE_CURVE('',#267,#273,#125,.T.);
#301=EDGE_CURVE('',#273,#271,#338,.T.);
#302=EDGE_CURVE('',#274,#275,#339,.T.);
#303=EDGE_CURVE('',#271,#275,#126,.T.);
#304=EDGE_CURVE('',#273,#274,#127,.T.);
#305=EDGE_CURVE('',#276,#277,#128,.T.);
#306=EDGE_CURVE('',#274,#277,#129,.T.);
#307=EDGE_CURVE('',#278,#273,#130,.T.);
#308=EDGE_CURVE('',#278,#276,#131,.T.);
#309=EDGE_CURVE('',#279,#276,#132,.T.);
#310=EDGE_CURVE('',#279,#278,#340,.T.);
#311=EDGE_CURVE('',#266,#278,#133,.T.);
#312=EDGE_CURVE('',#265,#279,#134,.T.);
#313=EDGE_CURVE('',#264,#280,#135,.T.);
#314=EDGE_CURVE('',#280,#279,#136,.T.);
#315=EDGE_CURVE('',#281,#277,#137,.T.);
#316=EDGE_CURVE('',#280,#281,#138,.T.);
#317=EDGE_CURVE('',#282,#281,#341,.T.);
#318=EDGE_CURVE('',#272,#280,#342,.T.);
#319=EDGE_CURVE('',#272,#282,#139,.T.);
#320=EDGE_CURVE('',#275,#282,#140,.T.);
#321=EDGE_CURVE('',#283,#284,#343,.T.);
#322=EDGE_CURVE('',#284,#283,#344,.T.);
#323=EDGE_CURVE('',#284,#285,#141,.T.);
#324=EDGE_CURVE('',#286,#285,#345,.T.);
#325=EDGE_CURVE('',#283,#286,#142,.T.);
#326=EDGE_CURVE('',#286,#285,#346,.T.);
#327=EDGE_CURVE('',#287,#288,#347,.T.);
#328=EDGE_CURVE('',#288,#285,#143,.T.);
#329=EDGE_CURVE('',#287,#286,#144,.T.);
#330=EDGE_CURVE('',#287,#288,#348,.T.);
#331=EDGE_CURVE('',#287,#269,#145,.T.);
#332=EDGE_CURVE('',#288,#270,#146,.T.);
#333=CIRCLE('',#370,1.2);
#334=CIRCLE('',#371,0.4);
#335=CIRCLE('',#372,0.8);
#336=CIRCLE('',#373,3.1);
#337=CIRCLE('',#374,3.1);
#338=CIRCLE('',#377,0.8);
#339=CIRCLE('',#379,0.2984988024247);
#340=CIRCLE('',#382,0.4);
#341=CIRCLE('',#387,0.6984988024247);
#342=CIRCLE('',#388,1.2);
#343=CIRCLE('',#391,3.1);
#344=CIRCLE('',#392,3.1);
#345=CIRCLE('',#394,2.4);
#346=CIRCLE('',#396,2.4);
#347=CIRCLE('',#398,2.4);
#348=CIRCLE('',#400,2.4);
#349=COLOUR_RGB('Strong Stone',0.576470588235294,0.54508278019379,0.392156862745098);
#350=COLOUR_RGB('spare part',0.301960784313725,0.301960784313725,0.301960784313725);
#351=CURVE_STYLE('',#353,POSITIVE_LENGTH_MEASURE(0.13),#366);
#352=CURVE_STYLE('',#354,POSITIVE_LENGTH_MEASURE(0.13),#349);
#353=DRAUGHTING_PRE_DEFINED_CURVE_FONT('continuous');
#354=DRAUGHTING_PRE_DEFINED_CURVE_FONT('continuous');
#355=PRESENTATION_LAYER_ASSIGNMENT('1','Layer 1',(#513,#368,#369,#33));
#356=STYLED_ITEM('',(#360),#513);
#357=STYLED_ITEM('',(#361),#368);
#358=STYLED_ITEM('',(#362),#369);
#359=STYLED_ITEM('',(#363),#33);
#360=PRESENTATION_STYLE_ASSIGNMENT((#364));
#361=PRESENTATION_STYLE_ASSIGNMENT((#351));
#362=PRESENTATION_STYLE_ASSIGNMENT((#352));
#363=PRESENTATION_STYLE_ASSIGNMENT((#28));
#364=POINT_STYLE('',#365,POSITIVE_LENGTH_MEASURE(3.),#366);
#365=PRE_DEFINED_POINT_MARKER_SYMBOL('plus');
#366=DRAUGHTING_PRE_DEFINED_COLOUR('yellow');
#367=AXIS2_PLACEMENT_3D('',#512,#406,#407);
#368=AXIS2_PLACEMENT_3D('PCS',#514,#408,#409);
#369=AXIS2_PLACEMENT_3D('',#515,#410,#411);
#370=AXIS2_PLACEMENT_3D('',#516,#412,#413);
#371=AXIS2_PLACEMENT_3D('',#521,#415,#416);
#372=AXIS2_PLACEMENT_3D('',#525,#418,#419);
#373=AXIS2_PLACEMENT_3D('',#528,#421,#422);
#374=AXIS2_PLACEMENT_3D('',#531,#423,#424);
#375=AXIS2_PLACEMENT_3D('',#532,#425,#426);
#376=AXIS2_PLACEMENT_3D('',#538,#430,#431);
#377=AXIS2_PLACEMENT_3D('',#541,#433,#434);
#378=AXIS2_PLACEMENT_3D('',#542,#435,#436);
#379=AXIS2_PLACEMENT_3D('',#543,#437,#438);
#380=AXIS2_PLACEMENT_3D('',#548,#441,#442);
#381=AXIS2_PLACEMENT_3D('',#556,#447,#448);
#382=AXIS2_PLACEMENT_3D('',#559,#450,#451);
#383=AXIS2_PLACEMENT_3D('',#560,#452,#453);
#384=AXIS2_PLACEMENT_3D('',#563,#456,#457);
#385=AXIS2_PLACEMENT_3D('',#567,#460,#461);
#386=AXIS2_PLACEMENT_3D('',#571,#464,#465);
#387=AXIS2_PLACEMENT_3D('',#572,#466,#467);
#388=AXIS2_PLACEMENT_3D('',#574,#468,#469);
#389=AXIS2_PLACEMENT_3D('',#576,#471,#472);
#390=AXIS2_PLACEMENT_3D('',#578,#474,#475);
#391=AXIS2_PLACEMENT_3D('',#579,#476,#477);
#392=AXIS2_PLACEMENT_3D('',#582,#478,#479);
#393=AXIS2_PLACEMENT_3D('',#583,#480,#481);
#394=AXIS2_PLACEMENT_3D('',#586,#483,#484);
#395=AXIS2_PLACEMENT_3D('',#589,#486,#487);
#396=AXIS2_PLACEMENT_3D('',#590,#488,#489);
#397=AXIS2_PLACEMENT_3D('',#591,#490,#491);
#398=AXIS2_PLACEMENT_3D('',#592,#492,#493);
#399=AXIS2_PLACEMENT_3D('',#597,#496,#497);
#400=AXIS2_PLACEMENT_3D('',#598,#498,#499);
#401=AXIS2_PLACEMENT_3D('',#599,#500,#501);
#402=AXIS2_PLACEMENT_3D('',#602,#504,#505);
#403=AXIS2_PLACEMENT_3D('',#603,#506,#507);
#404=AXIS2_PLACEMENT_3D('',#604,#508,#509);
#405=AXIS2_PLACEMENT_3D('',#605,#510,#511);
#406=DIRECTION('',(0.,0.,1.));
#407=DIRECTION('',(1.,0.,0.));
#408=DIRECTION('',(0.,0.,1.));
#409=DIRECTION('',(1.,0.,0.));
#410=DIRECTION('',(0.,0.,1.));
#411=DIRECTION('',(1.,0.,0.));
#412=DIRECTION('',(0.,0.,1.));
#413=DIRECTION('',(0.,-1.,0.));
#414=DIRECTION('',(-0.500000000000017,0.866025403784429,0.));
#415=DIRECTION('',(0.,0.,1.));
#416=DIRECTION('',(0.866025403784429,0.500000000000019,0.));
#417=DIRECTION('',(-0.500000000000017,-0.866025403784429,0.));
#418=DIRECTION('',(0.,0.,1.));
#419=DIRECTION('',(-0.866025403784429,0.500000000000016,0.));
#420=DIRECTION('',(1.,0.,0.));
#421=DIRECTION('',(0.,0.,1.));
#422=DIRECTION('',(0.,1.,0.));
#423=DIRECTION('',(0.,0.,1.));
#424=DIRECTION('',(0.,-1.,0.));
#425=DIRECTION('',(0.,0.,1.));
#426=DIRECTION('',(-1.,0.,0.));
#427=DIRECTION('',(1.,0.,0.));
#428=DIRECTION('',(0.,0.,-1.));
#429=DIRECTION('',(0.,0.,-1.));
#430=DIRECTION('',(0.,-1.,0.));
#431=DIRECTION('',(-1.,0.,0.));
#432=DIRECTION('',(0.,0.,-1.));
#433=DIRECTION('',(0.,0.,1.));
#434=DIRECTION('',(-0.866025403784429,0.500000000000016,0.));
#435=DIRECTION('',(0.,0.,1.));
#436=DIRECTION('',(-1.,0.,0.));
#437=DIRECTION('',(0.,0.,1.));
#438=DIRECTION('',(-0.866025403784429,0.500000000000017,0.));
#439=DIRECTION('',(0.,0.190808995376495,-0.981627183447674));
#440=DIRECTION('',(0.165245437266694,-0.0954044976882663,-0.981627183447662));
#441=DIRECTION('',(0.,0.,1.));
#442=DIRECTION('',(-1.,0.,2.70314189278133E-16));
#443=DIRECTION('',(0.,-0.362342410398513,-0.932045051285932));
#444=DIRECTION('',(0.500000000000017,0.866025403784429,0.));
#445=DIRECTION('',(-0.500000000000017,-0.866025403784429,0.));
#446=DIRECTION('',(0.165245437266694,-0.0954044976882663,-0.981627183447662));
#447=DIRECTION('',(-0.850114077911053,0.49081359172383,-0.190808995376512));
#448=DIRECTION('',(0.499999999999996,0.866025403784441,-4.66044303842894E-15));
#449=DIRECTION('',(-0.165245437266694,-0.0954044976882663,-0.981627183447662));
#450=DIRECTION('',(0.,0.,1.));
#451=DIRECTION('',(0.866025403784429,0.500000000000019,0.));
#452=DIRECTION('',(0.,0.,1.));
#453=DIRECTION('',(-1.,0.,-6.68626680510905E-18));
#454=DIRECTION('',(0.,0.,-1.));
#455=DIRECTION('',(0.,0.,-1.));
#456=DIRECTION('',(0.,0.,1.));
#457=DIRECTION('',(-1.,0.,0.));
#458=DIRECTION('',(0.,0.,-1.));
#459=DIRECTION('',(-0.500000000000017,0.866025403784429,0.));
#460=DIRECTION('',(0.866025403784429,0.500000000000017,0.));
#461=DIRECTION('',(0.500000000000017,-0.866025403784429,0.));
#462=DIRECTION('',(-0.500000000000017,0.866025403784429,0.));
#463=DIRECTION('',(-0.165245437266694,-0.0954044976882663,-0.981627183447662));
#464=DIRECTION('',(0.850114077911053,0.49081359172383,-0.190808995376512));
#465=DIRECTION('',(0.499999999999996,-0.866025403784441,4.66044303842894E-15));
#466=DIRECTION('',(0.,0.,1.));
#467=DIRECTION('',(-1.49010146040771E-14,-1.,0.));
#468=DIRECTION('',(0.,0.,1.));
#469=DIRECTION('',(0.,-1.,0.));
#470=DIRECTION('',(0.,0.190808995376495,-0.981627183447674));
#471=DIRECTION('',(0.,0.,1.));
#472=DIRECTION('',(-1.,0.,2.6976063416584E-16));
#473=DIRECTION('',(1.,0.,0.));
#474=DIRECTION('',(0.,-0.981627183447674,-0.190808995376495));
#475=DIRECTION('',(-1.,0.,0.));
#476=DIRECTION('',(0.,0.,1.));
#477=DIRECTION('',(0.,1.,0.));
#478=DIRECTION('',(0.,0.,1.));
#479=DIRECTION('',(0.,-1.,0.));
#480=DIRECTION('',(0.,0.,1.));
#481=DIRECTION('',(-1.,0.,0.));
#482=DIRECTION('',(0.,0.707106781186547,0.707106781186547));
#483=DIRECTION('',(0.,0.,-1.));
#484=DIRECTION('',(0.,1.,0.));
#485=DIRECTION('',(0.,-0.707106781186547,0.707106781186547));
#486=DIRECTION('',(0.,0.,-1.));
#487=DIRECTION('',(0.,1.,-1.09852845399678E-16));
#488=DIRECTION('',(0.,0.,1.));
#489=DIRECTION('',(0.,1.,0.));
#490=DIRECTION('',(0.,0.,-1.));
#491=DIRECTION('',(0.,1.,-1.09852845399678E-16));
#492=DIRECTION('',(0.,0.,1.));
#493=DIRECTION('',(0.,1.,0.));
#494=DIRECTION('',(0.,0.,-1.));
#495=DIRECTION('',(0.,0.,-1.));
#496=DIRECTION('',(0.,0.,-1.));
#497=DIRECTION('',(0.,1.,0.));
#498=DIRECTION('',(0.,0.,-1.));
#499=DIRECTION('',(0.,1.,0.));
#500=DIRECTION('',(0.,0.,-1.));
#501=DIRECTION('',(0.,1.,0.));
#502=DIRECTION('',(0.,0.500000000000017,0.866025403784429));
#503=DIRECTION('',(0.,-0.500000000000017,0.866025403784429));
#504=DIRECTION('',(0.,0.,1.));
#505=DIRECTION('',(0.,-1.,-5.55090322019719E-17));
#506=DIRECTION('',(0.,0.,1.));
#507=DIRECTION('',(0.,-1.,-5.55090322019719E-17));
#508=DIRECTION('',(0.,0.,1.));
#509=DIRECTION('',(-1.,0.,0.));
#510=DIRECTION('',(-0.866025403784429,0.500000000000017,0.));
#511=DIRECTION('',(0.500000000000017,0.866025403784429,0.));
#512=CARTESIAN_POINT('',(0.,0.,0.));
#513=CARTESIAN_POINT('',(0.,0.,0.));
#514=CARTESIAN_POINT('',(0.,0.,0.));
#515=CARTESIAN_POINT('',(0.,0.,0.));
#516=CARTESIAN_POINT('',(6.166100874945,-3.56,0.));
#517=CARTESIAN_POINT('',(6.166100874945,-4.76,0.));
#518=CARTESIAN_POINT('',(7.205331359487,-2.96,0.));
#519=CARTESIAN_POINT('',(7.205331359487,-2.96,0.));
#520=CARTESIAN_POINT('',(0.3464101615138,8.92,0.));
#521=CARTESIAN_POINT('',(0.,8.72,0.));
#522=CARTESIAN_POINT('',(-0.3464101615138,8.92,0.));
#523=CARTESIAN_POINT('',(-0.3464101615138,8.92,0.));
#524=CARTESIAN_POINT('',(-7.551741521,-3.56,0.));
#525=CARTESIAN_POINT('',(-6.858921197973,-3.96,0.));
#526=CARTESIAN_POINT('',(-6.858921197973,-4.76,0.));
#527=CARTESIAN_POINT('',(-6.858921197973,-4.76,0.));
#528=CARTESIAN_POINT('',(0.,0.,0.));
#529=CARTESIAN_POINT('',(0.,3.1,0.));
#530=CARTESIAN_POINT('',(0.,-3.1,0.));
#531=CARTESIAN_POINT('',(0.,0.,0.));
#532=CARTESIAN_POINT('',(0.,0.,0.));
#533=CARTESIAN_POINT('',(-6.858921197973,-4.76,-0.6));
#534=CARTESIAN_POINT('',(-6.858921197973,-4.76,-0.6));
#535=CARTESIAN_POINT('',(6.166100874945,-4.76,-0.6));
#536=CARTESIAN_POINT('',(6.166100874945,-4.76,0.));
#537=CARTESIAN_POINT('',(-6.858921197973,-4.76,0.));
#538=CARTESIAN_POINT('',(-6.858921197973,-4.76,0.));
#539=CARTESIAN_POINT('',(-7.551741521,-3.56,0.));
#540=CARTESIAN_POINT('',(-7.551741521,-3.56,-0.6));
#541=CARTESIAN_POINT('',(-6.858921197973,-3.96,-0.6));
#542=CARTESIAN_POINT('',(-6.858921197973,-3.96,0.));
#543=CARTESIAN_POINT('',(-6.858921197973,-3.96,-3.18));
#544=CARTESIAN_POINT('',(-7.117428743872,-3.810750598788,-3.18));
#545=CARTESIAN_POINT('',(-6.858921197973,-4.258498802425,-3.18));
#546=CARTESIAN_POINT('',(-6.858921197973,-4.76,-0.6));
#547=CARTESIAN_POINT('',(-7.551741521,-3.56,-0.6));
#548=CARTESIAN_POINT('',(-6.858921197973,-3.96,-1.89));
#549=CARTESIAN_POINT('',(0.,8.72,-2.657821606388));
#550=CARTESIAN_POINT('',(0.,8.72,-2.657821606388));
#551=CARTESIAN_POINT('',(0.,8.516997604849,-3.18));
#552=CARTESIAN_POINT('',(-7.117428743872,-3.810750598788,-3.18));
#553=CARTESIAN_POINT('',(-0.3464101615138,8.92,-0.6));
#554=CARTESIAN_POINT('',(-0.3464101615138,8.92,-0.6));
#555=CARTESIAN_POINT('',(-0.3464101615138,8.92,-0.6));
#556=CARTESIAN_POINT('',(-0.3464101615138,8.92,-0.6));
#557=CARTESIAN_POINT('',(0.3464101615138,8.92,-0.6));
#558=CARTESIAN_POINT('',(0.3464101615138,8.92,-0.6));
#559=CARTESIAN_POINT('',(0.,8.72,-0.6));
#560=CARTESIAN_POINT('',(0.,8.72,-1.60833258713));
#561=CARTESIAN_POINT('',(-0.3464101615138,8.92,0.));
#562=CARTESIAN_POINT('',(0.3464101615138,8.92,0.));
#563=CARTESIAN_POINT('',(0.,8.72,0.));
#564=CARTESIAN_POINT('',(7.205331359487,-2.96,0.));
#565=CARTESIAN_POINT('',(7.205331359487,-2.96,-0.6));
#566=CARTESIAN_POINT('',(7.205331359487,-2.96,-0.6));
#567=CARTESIAN_POINT('',(7.205331359487,-2.96,0.));
#568=CARTESIAN_POINT('',(6.771018582358,-3.210750598788,-3.18));
#569=CARTESIAN_POINT('',(6.771018582358,-3.210750598788,-3.18));
#570=CARTESIAN_POINT('',(7.205331359487,-2.96,-0.6));
#571=CARTESIAN_POINT('',(7.205331359487,-2.96,-0.6));
#572=CARTESIAN_POINT('',(6.166100874945,-3.56,-3.18));
#573=CARTESIAN_POINT('',(6.166100874945,-4.258498802425,-3.18));
#574=CARTESIAN_POINT('',(6.166100874945,-3.56,-0.6));
#575=CARTESIAN_POINT('',(6.166100874945,-4.76,-0.6));
#576=CARTESIAN_POINT('',(6.166100874945,-3.56,-1.89));
#577=CARTESIAN_POINT('',(-6.858921197973,-4.258498802425,-3.18));
#578=CARTESIAN_POINT('',(-6.858921197973,-4.76,-0.6));
#579=CARTESIAN_POINT('',(0.,0.,-3.18));
#580=CARTESIAN_POINT('',(0.,3.1,-3.18));
#581=CARTESIAN_POINT('',(0.,-3.1,-3.18));
#582=CARTESIAN_POINT('',(0.,0.,-3.18));
#583=CARTESIAN_POINT('',(0.,0.,-3.18));
#584=CARTESIAN_POINT('',(0.,-3.1,-3.18));
#585=CARTESIAN_POINT('',(0.,-2.4,-2.48));
#586=CARTESIAN_POINT('',(0.,0.,-2.48));
#587=CARTESIAN_POINT('',(0.,2.4,-2.48));
#588=CARTESIAN_POINT('',(0.,3.1,-3.18));
#589=CARTESIAN_POINT('',(0.,0.,-2.83));
#590=CARTESIAN_POINT('',(0.,0.,-2.48));
#591=CARTESIAN_POINT('',(0.,0.,-2.83));
#592=CARTESIAN_POINT('',(0.,0.,-1.212435565298));
#593=CARTESIAN_POINT('',(0.,2.4,-1.212435565298));
#594=CARTESIAN_POINT('',(0.,-2.4,-1.212435565298));
#595=CARTESIAN_POINT('',(0.,-2.4,-2.48));
#596=CARTESIAN_POINT('',(0.,2.4,-2.48));
#597=CARTESIAN_POINT('',(0.,0.,0.159));
#598=CARTESIAN_POINT('',(0.,0.,-1.212435565298));
#599=CARTESIAN_POINT('',(0.,0.,0.159));
#600=CARTESIAN_POINT('',(0.,2.4,-1.212435565298));
#601=CARTESIAN_POINT('',(0.,-2.4,-1.212435565298));
#602=CARTESIAN_POINT('',(0.,0.,-0.6062177826491));
#603=CARTESIAN_POINT('',(0.,0.,-0.6062177826491));
#604=CARTESIAN_POINT('',(6.166100874945,-3.56,0.));
#605=CARTESIAN_POINT('',(-0.3464101615138,8.92,0.));
#606=MECHANICAL_DESIGN_GEOMETRIC_PRESENTATION_REPRESENTATION('',(#356,#357,
#358,#359),#607);
#607=(
GEOMETRIC_REPRESENTATION_CONTEXT(3)
GLOBAL_UNCERTAINTY_ASSIGNED_CONTEXT((#608))
GLOBAL_UNIT_ASSIGNED_CONTEXT((#614,#610,#609))
REPRESENTATION_CONTEXT('LLSTP32','TOP_LEVEL_ASSEMBLY_PART')
);
#608=UNCERTAINTY_MEASURE_WITH_UNIT(LENGTH_MEASURE(2.E-5),#614,
'DISTANCE_ACCURACY_VALUE','Maximum Tolerance applied to model');
#609=(
NAMED_UNIT(*)
SI_UNIT($,.STERADIAN.)
SOLID_ANGLE_UNIT()
);
#610=(
CONVERSION_BASED_UNIT('DEGREE',#612)
NAMED_UNIT(#611)
PLANE_ANGLE_UNIT()
);
#611=DIMENSIONAL_EXPONENTS(0.,0.,0.,0.,0.,0.,0.);
#612=PLANE_ANGLE_MEASURE_WITH_UNIT(PLANE_ANGLE_MEASURE(0.0174532925),#613);
#613=(
NAMED_UNIT(*)
PLANE_ANGLE_UNIT()
SI_UNIT($,.RADIAN.)
);
#614=(
LENGTH_UNIT()
NAMED_UNIT(*)
SI_UNIT(.MILLI.,.METRE.)
);
ENDSEC;
END-ISO-10303-21;
