ISO-10303-21;
HEADER;
/* Generated by software containing ST-Developer
 * from STEP Tools, Inc. (www.steptools.com) 
 */
/* OPTION: using custom schema-name function */

FILE_DESCRIPTION(
/* description */ (''),
/* implementation_level */ '2;1');

FILE_NAME(
/* name */ 'HSD04004H12.stp',
/* time_stamp */ '2022-02-03T10:42:44+09:00',
/* author */ (''),
/* organization */ (''),
/* preprocessor_version */ 'ST-DEVELOPER v16',
/* originating_system */ 'SIEMENS PLM Software NX 10.0',
/* authorisation */ '');

FILE_SCHEMA (('AUTOMOTIVE_DESIGN { 1 0 10303 214 3 1 1 1 }'));
ENDSEC;

DATA;
#10=CONSTRUCTIVE_GEOMETRY_REPRESENTATION_RELATIONSHIP(
'supplemental geometry','',#26,#11);
#11=CONSTRUCTIVE_GEOMETRY_REPRESENTATION('supplemental geometry',(#358,
#359),#601);
#12=GEOMETRICALLY_BOUNDED_WIREFRAME_SHAPE_REPRESENTATION(
'HSD04004H12-None',(#27),#601);
#13=SHAPE_REPRESENTATION_RELATIONSHIP('None',
'relationship between HSD04004H12-None and HSD04004H12-None',#26,#15);
#14=SHAPE_REPRESENTATION_RELATIONSHIP('None',
'relationship between HSD04004H12-None and HSD04004H12-None',#26,#12);
#15=ADVANCED_BREP_SHAPE_REPRESENTATION('HSD04004H12-None',(#33),#601);
#16=SHAPE_DEFINITION_REPRESENTATION(#17,#26);
#17=PRODUCT_DEFINITION_SHAPE('','',#18);
#18=PRODUCT_DEFINITION('part definition','',#20,#19);
#19=PRODUCT_DEFINITION_CONTEXT('part definition',#25,'design');
#20=PRODUCT_DEFINITION_FORMATION_WITH_SPECIFIED_SOURCE(' ',' ',#22,
 .NOT_KNOWN.);
#21=PRODUCT_RELATED_PRODUCT_CATEGORY('part','',(#22));
#22=PRODUCT('HSD04004H12','HSD04004H12','NOT SPECIFIED',(#23));
#23=PRODUCT_CONTEXT('',#25,'mechanical');
#24=APPLICATION_PROTOCOL_DEFINITION('international standard',
'automotive_design',2010,#25);
#25=APPLICATION_CONTEXT(
'core data for automotive mechanical design processes');
#26=SHAPE_REPRESENTATION('HSD04004H12-None',(#357),#601);
#27=GEOMETRIC_CURVE_SET('None',(#490));
#28=SURFACE_STYLE_USAGE(.BOTH.,#29);
#29=SURFACE_SIDE_STYLE('',(#30));
#30=SURFACE_STYLE_FILL_AREA(#31);
#31=FILL_AREA_STYLE('',(#32));
#32=FILL_AREA_STYLE_COLOUR('',#340);
#33=MANIFOLD_SOLID_BREP('',#34);
#34=CLOSED_SHELL('',(#58,#59,#60,#61,#62,#63,#64,#65,#66,#67,#68,#69,#70,
#71,#72,#73,#74,#75,#76));
#35=B_SPLINE_CURVE_WITH_KNOTS('',3,(#544,#545,#546,#547),.UNSPECIFIED.,
 .F.,.F.,(4,4),(0.,1.),.UNSPECIFIED.);
#36=B_SPLINE_CURVE_WITH_KNOTS('',3,(#551,#552,#553,#554),.UNSPECIFIED.,
 .F.,.F.,(4,4),(0.,1.),.UNSPECIFIED.);
#37=B_SPLINE_CURVE_WITH_KNOTS('',3,(#558,#559,#560,#561),.UNSPECIFIED.,
 .F.,.F.,(4,4),(0.,1.),.UNSPECIFIED.);
#38=B_SPLINE_CURVE_WITH_KNOTS('',3,(#565,#566,#567,#568),.UNSPECIFIED.,
 .F.,.F.,(4,4),(0.,1.),.UNSPECIFIED.);
#39=B_SPLINE_CURVE_WITH_KNOTS('',3,(#572,#573,#574,#575),.UNSPECIFIED.,
 .F.,.F.,(4,4),(0.,1.),.UNSPECIFIED.);
#40=B_SPLINE_CURVE_WITH_KNOTS('',3,(#579,#580,#581,#582),.UNSPECIFIED.,
 .F.,.F.,(4,4),(0.,1.),.UNSPECIFIED.);
#41=PLANE('',#378);
#42=PLANE('',#379);
#43=PLANE('',#380);
#44=PLANE('',#381);
#45=PLANE('',#382);
#46=PLANE('',#383);
#47=PLANE('',#384);
#48=FACE_BOUND('',#107,.T.);
#49=FACE_BOUND('',#108,.T.);
#50=CONICAL_SURFACE('',#364,1.499999999993,45.);
#51=CONICAL_SURFACE('',#366,0.8,60.);
#52=CONICAL_SURFACE('',#369,0.8,60.);
#53=CONICAL_SURFACE('',#371,1.499999999993,45.);
#54=CONICAL_SURFACE('',#375,1.75,60.);
#55=CONICAL_SURFACE('',#377,1.75,60.);
#56=CONICAL_SURFACE('',#387,0.8773502691896,70.);
#57=CONICAL_SURFACE('',#391,0.8773502691896,70.);
#58=ADVANCED_FACE('',(#81),#77,.T.);
#59=ADVANCED_FACE('',(#82),#50,.T.);
#60=ADVANCED_FACE('',(#83),#51,.F.);
#61=ADVANCED_FACE('',(#84),#52,.F.);
#62=ADVANCED_FACE('',(#85),#53,.T.);
#63=ADVANCED_FACE('',(#86),#78,.T.);
#64=ADVANCED_FACE('',(#87),#54,.T.);
#65=ADVANCED_FACE('',(#88),#55,.T.);
#66=ADVANCED_FACE('',(#48,#49),#41,.T.);
#67=ADVANCED_FACE('',(#89),#42,.F.);
#68=ADVANCED_FACE('',(#90),#43,.F.);
#69=ADVANCED_FACE('',(#91),#44,.F.);
#70=ADVANCED_FACE('',(#92),#45,.F.);
#71=ADVANCED_FACE('',(#93),#46,.F.);
#72=ADVANCED_FACE('',(#94),#47,.F.);
#73=ADVANCED_FACE('',(#95),#56,.F.);
#74=ADVANCED_FACE('',(#96),#79,.F.);
#75=ADVANCED_FACE('',(#97),#57,.F.);
#76=ADVANCED_FACE('',(#98),#80,.F.);
#77=CYLINDRICAL_SURFACE('',#362,2.);
#78=CYLINDRICAL_SURFACE('',#373,2.);
#79=CYLINDRICAL_SURFACE('',#389,0.6);
#80=CYLINDRICAL_SURFACE('',#392,0.6);
#81=FACE_OUTER_BOUND('',#99,.T.);
#82=FACE_OUTER_BOUND('',#100,.T.);
#83=FACE_OUTER_BOUND('',#101,.T.);
#84=FACE_OUTER_BOUND('',#102,.T.);
#85=FACE_OUTER_BOUND('',#103,.T.);
#86=FACE_OUTER_BOUND('',#104,.T.);
#87=FACE_OUTER_BOUND('',#105,.T.);
#88=FACE_OUTER_BOUND('',#106,.T.);
#89=FACE_OUTER_BOUND('',#109,.T.);
#90=FACE_OUTER_BOUND('',#110,.T.);
#91=FACE_OUTER_BOUND('',#111,.T.);
#92=FACE_OUTER_BOUND('',#112,.T.);
#93=FACE_OUTER_BOUND('',#113,.T.);
#94=FACE_OUTER_BOUND('',#114,.T.);
#95=FACE_OUTER_BOUND('',#115,.T.);
#96=FACE_OUTER_BOUND('',#116,.T.);
#97=FACE_OUTER_BOUND('',#117,.T.);
#98=FACE_OUTER_BOUND('',#118,.T.);
#99=EDGE_LOOP('',(#133,#134,#135,#136));
#100=EDGE_LOOP('',(#137,#138,#139,#140));
#101=EDGE_LOOP('',(#141,#142,#143,#144));
#102=EDGE_LOOP('',(#145,#146,#147,#148));
#103=EDGE_LOOP('',(#149,#150,#151,#152));
#104=EDGE_LOOP('',(#153,#154,#155,#156));
#105=EDGE_LOOP('',(#157,#158,#159,#160));
#106=EDGE_LOOP('',(#161,#162,#163,#164));
#107=EDGE_LOOP('',(#165,#166));
#108=EDGE_LOOP('',(#167,#168,#169,#170,#171,#172));
#109=EDGE_LOOP('',(#173,#174,#175,#176));
#110=EDGE_LOOP('',(#177,#178,#179,#180));
#111=EDGE_LOOP('',(#181,#182,#183,#184));
#112=EDGE_LOOP('',(#185,#186,#187,#188));
#113=EDGE_LOOP('',(#189,#190,#191,#192));
#114=EDGE_LOOP('',(#193,#194,#195,#196));
#115=EDGE_LOOP('',(#197,#198,#199,#200,#201,#202,#203));
#116=EDGE_LOOP('',(#204,#205,#206,#207,#208));
#117=EDGE_LOOP('',(#209,#210,#211,#212,#213,#214,#215));
#118=EDGE_LOOP('',(#216,#217,#218,#219,#220));
#119=CIRCLE('',#360,2.);
#120=CIRCLE('',#361,2.);
#121=CIRCLE('',#363,1.);
#122=CIRCLE('',#365,0.6);
#123=CIRCLE('',#367,0.6);
#124=CIRCLE('',#368,1.);
#125=CIRCLE('',#370,2.);
#126=CIRCLE('',#372,2.);
#127=CIRCLE('',#374,1.5);
#128=CIRCLE('',#376,1.5);
#129=CIRCLE('',#385,0.6);
#130=CIRCLE('',#386,0.6);
#131=CIRCLE('',#388,0.6);
#132=CIRCLE('',#390,0.6);
#133=ORIENTED_EDGE('',*,*,#247,.F.);
#134=ORIENTED_EDGE('',*,*,#248,.F.);
#135=ORIENTED_EDGE('',*,*,#249,.T.);
#136=ORIENTED_EDGE('',*,*,#250,.F.);
#137=ORIENTED_EDGE('',*,*,#251,.F.);
#138=ORIENTED_EDGE('',*,*,#250,.T.);
#139=ORIENTED_EDGE('',*,*,#252,.T.);
#140=ORIENTED_EDGE('',*,*,#253,.F.);
#141=ORIENTED_EDGE('',*,*,#254,.T.);
#142=ORIENTED_EDGE('',*,*,#255,.T.);
#143=ORIENTED_EDGE('',*,*,#256,.F.);
#144=ORIENTED_EDGE('',*,*,#253,.T.);
#145=ORIENTED_EDGE('',*,*,#256,.T.);
#146=ORIENTED_EDGE('',*,*,#257,.F.);
#147=ORIENTED_EDGE('',*,*,#254,.F.);
#148=ORIENTED_EDGE('',*,*,#258,.T.);
#149=ORIENTED_EDGE('',*,*,#252,.F.);
#150=ORIENTED_EDGE('',*,*,#259,.T.);
#151=ORIENTED_EDGE('',*,*,#251,.T.);
#152=ORIENTED_EDGE('',*,*,#258,.F.);
#153=ORIENTED_EDGE('',*,*,#249,.F.);
#154=ORIENTED_EDGE('',*,*,#260,.T.);
#155=ORIENTED_EDGE('',*,*,#247,.T.);
#156=ORIENTED_EDGE('',*,*,#259,.F.);
#157=ORIENTED_EDGE('',*,*,#261,.T.);
#158=ORIENTED_EDGE('',*,*,#262,.F.);
#159=ORIENTED_EDGE('',*,*,#260,.F.);
#160=ORIENTED_EDGE('',*,*,#263,.T.);
#161=ORIENTED_EDGE('',*,*,#248,.T.);
#162=ORIENTED_EDGE('',*,*,#262,.T.);
#163=ORIENTED_EDGE('',*,*,#264,.F.);
#164=ORIENTED_EDGE('',*,*,#263,.F.);
#165=ORIENTED_EDGE('',*,*,#261,.F.);
#166=ORIENTED_EDGE('',*,*,#264,.T.);
#167=ORIENTED_EDGE('',*,*,#265,.F.);
#168=ORIENTED_EDGE('',*,*,#266,.F.);
#169=ORIENTED_EDGE('',*,*,#267,.F.);
#170=ORIENTED_EDGE('',*,*,#268,.F.);
#171=ORIENTED_EDGE('',*,*,#269,.F.);
#172=ORIENTED_EDGE('',*,*,#270,.F.);
#173=ORIENTED_EDGE('',*,*,#271,.F.);
#174=ORIENTED_EDGE('',*,*,#272,.F.);
#175=ORIENTED_EDGE('',*,*,#273,.T.);
#176=ORIENTED_EDGE('',*,*,#270,.T.);
#177=ORIENTED_EDGE('',*,*,#273,.F.);
#178=ORIENTED_EDGE('',*,*,#274,.F.);
#179=ORIENTED_EDGE('',*,*,#275,.T.);
#180=ORIENTED_EDGE('',*,*,#265,.T.);
#181=ORIENTED_EDGE('',*,*,#275,.F.);
#182=ORIENTED_EDGE('',*,*,#276,.F.);
#183=ORIENTED_EDGE('',*,*,#277,.T.);
#184=ORIENTED_EDGE('',*,*,#266,.T.);
#185=ORIENTED_EDGE('',*,*,#277,.F.);
#186=ORIENTED_EDGE('',*,*,#278,.F.);
#187=ORIENTED_EDGE('',*,*,#279,.T.);
#188=ORIENTED_EDGE('',*,*,#267,.T.);
#189=ORIENTED_EDGE('',*,*,#279,.F.);
#190=ORIENTED_EDGE('',*,*,#280,.F.);
#191=ORIENTED_EDGE('',*,*,#281,.T.);
#192=ORIENTED_EDGE('',*,*,#268,.T.);
#193=ORIENTED_EDGE('',*,*,#281,.F.);
#194=ORIENTED_EDGE('',*,*,#282,.F.);
#195=ORIENTED_EDGE('',*,*,#271,.T.);
#196=ORIENTED_EDGE('',*,*,#269,.T.);
#197=ORIENTED_EDGE('',*,*,#283,.T.);
#198=ORIENTED_EDGE('',*,*,#282,.T.);
#199=ORIENTED_EDGE('',*,*,#280,.T.);
#200=ORIENTED_EDGE('',*,*,#278,.T.);
#201=ORIENTED_EDGE('',*,*,#284,.F.);
#202=ORIENTED_EDGE('',*,*,#285,.F.);
#203=ORIENTED_EDGE('',*,*,#286,.F.);
#204=ORIENTED_EDGE('',*,*,#286,.T.);
#205=ORIENTED_EDGE('',*,*,#287,.F.);
#206=ORIENTED_EDGE('',*,*,#255,.F.);
#207=ORIENTED_EDGE('',*,*,#288,.T.);
#208=ORIENTED_EDGE('',*,*,#289,.T.);
#209=ORIENTED_EDGE('',*,*,#290,.F.);
#210=ORIENTED_EDGE('',*,*,#284,.T.);
#211=ORIENTED_EDGE('',*,*,#276,.T.);
#212=ORIENTED_EDGE('',*,*,#274,.T.);
#213=ORIENTED_EDGE('',*,*,#272,.T.);
#214=ORIENTED_EDGE('',*,*,#283,.F.);
#215=ORIENTED_EDGE('',*,*,#289,.F.);
#216=ORIENTED_EDGE('',*,*,#288,.F.);
#217=ORIENTED_EDGE('',*,*,#257,.T.);
#218=ORIENTED_EDGE('',*,*,#287,.T.);
#219=ORIENTED_EDGE('',*,*,#285,.T.);
#220=ORIENTED_EDGE('',*,*,#290,.T.);
#221=VERTEX_POINT('',#494);
#222=VERTEX_POINT('',#495);
#223=VERTEX_POINT('',#497);
#224=VERTEX_POINT('',#499);
#225=VERTEX_POINT('',#503);
#226=VERTEX_POINT('',#505);
#227=VERTEX_POINT('',#509);
#228=VERTEX_POINT('',#511);
#229=VERTEX_POINT('',#522);
#230=VERTEX_POINT('',#523);
#231=VERTEX_POINT('',#530);
#232=VERTEX_POINT('',#531);
#233=VERTEX_POINT('',#533);
#234=VERTEX_POINT('',#535);
#235=VERTEX_POINT('',#537);
#236=VERTEX_POINT('',#539);
#237=VERTEX_POINT('',#543);
#238=VERTEX_POINT('',#548);
#239=VERTEX_POINT('',#555);
#240=VERTEX_POINT('',#562);
#241=VERTEX_POINT('',#569);
#242=VERTEX_POINT('',#576);
#243=VERTEX_POINT('',#585);
#244=VERTEX_POINT('',#587);
#245=VERTEX_POINT('',#589);
#246=VERTEX_POINT('',#594);
#247=EDGE_CURVE('',#221,#222,#291,.T.);
#248=EDGE_CURVE('',#223,#221,#119,.T.);
#249=EDGE_CURVE('',#223,#224,#292,.T.);
#250=EDGE_CURVE('',#222,#224,#120,.T.);
#251=EDGE_CURVE('',#222,#225,#293,.T.);
#252=EDGE_CURVE('',#224,#226,#294,.T.);
#253=EDGE_CURVE('',#225,#226,#121,.T.);
#254=EDGE_CURVE('',#226,#227,#295,.T.);
#255=EDGE_CURVE('',#227,#228,#122,.T.);
#256=EDGE_CURVE('',#225,#228,#296,.T.);
#257=EDGE_CURVE('',#227,#228,#123,.T.);
#258=EDGE_CURVE('',#226,#225,#124,.T.);
#259=EDGE_CURVE('',#224,#222,#125,.T.);
#260=EDGE_CURVE('',#223,#221,#126,.T.);
#261=EDGE_CURVE('',#229,#230,#127,.T.);
#262=EDGE_CURVE('',#221,#230,#297,.T.);
#263=EDGE_CURVE('',#223,#229,#298,.T.);
#264=EDGE_CURVE('',#229,#230,#128,.T.);
#265=EDGE_CURVE('',#231,#232,#299,.T.);
#266=EDGE_CURVE('',#233,#231,#300,.T.);
#267=EDGE_CURVE('',#234,#233,#301,.T.);
#268=EDGE_CURVE('',#235,#234,#302,.T.);
#269=EDGE_CURVE('',#236,#235,#303,.T.);
#270=EDGE_CURVE('',#232,#236,#304,.T.);
#271=EDGE_CURVE('',#237,#236,#305,.T.);
#272=EDGE_CURVE('',#238,#237,#35,.T.);
#273=EDGE_CURVE('',#238,#232,#306,.T.);
#274=EDGE_CURVE('',#239,#238,#36,.T.);
#275=EDGE_CURVE('',#239,#231,#307,.T.);
#276=EDGE_CURVE('',#240,#239,#37,.T.);
#277=EDGE_CURVE('',#240,#233,#308,.T.);
#278=EDGE_CURVE('',#241,#240,#38,.T.);
#279=EDGE_CURVE('',#241,#234,#309,.T.);
#280=EDGE_CURVE('',#242,#241,#39,.T.);
#281=EDGE_CURVE('',#242,#235,#310,.T.);
#282=EDGE_CURVE('',#237,#242,#40,.T.);
#283=EDGE_CURVE('',#243,#237,#311,.T.);
#284=EDGE_CURVE('',#244,#240,#312,.T.);
#285=EDGE_CURVE('',#245,#244,#129,.T.);
#286=EDGE_CURVE('',#243,#245,#130,.T.);
#287=EDGE_CURVE('',#228,#245,#313,.T.);
#288=EDGE_CURVE('',#227,#246,#314,.T.);
#289=EDGE_CURVE('',#246,#243,#131,.T.);
#290=EDGE_CURVE('',#244,#246,#132,.T.);
#291=LINE('',#493,#315);
#292=LINE('',#498,#316);
#293=LINE('',#502,#317);
#294=LINE('',#504,#318);
#295=LINE('',#508,#319);
#296=LINE('',#512,#320);
#297=LINE('',#524,#321);
#298=LINE('',#525,#322);
#299=LINE('',#529,#323);
#300=LINE('',#532,#324);
#301=LINE('',#534,#325);
#302=LINE('',#536,#326);
#303=LINE('',#538,#327);
#304=LINE('',#540,#328);
#305=LINE('',#542,#329);
#306=LINE('',#549,#330);
#307=LINE('',#556,#331);
#308=LINE('',#563,#332);
#309=LINE('',#570,#333);
#310=LINE('',#577,#334);
#311=LINE('',#584,#335);
#312=LINE('',#586,#336);
#313=LINE('',#592,#337);
#314=LINE('',#593,#338);
#315=VECTOR('',#399,1.);
#316=VECTOR('',#402,1.);
#317=VECTOR('',#407,1.);
#318=VECTOR('',#408,1.);
#319=VECTOR('',#413,1.);
#320=VECTOR('',#416,1.);
#321=VECTOR('',#435,1.);
#322=VECTOR('',#436,1.);
#323=VECTOR('',#443,1.);
#324=VECTOR('',#444,1.);
#325=VECTOR('',#445,1.);
#326=VECTOR('',#446,1.);
#327=VECTOR('',#447,1.);
#328=VECTOR('',#448,1.);
#329=VECTOR('',#451,1.);
#330=VECTOR('',#452,1.);
#331=VECTOR('',#455,1.);
#332=VECTOR('',#458,1.);
#333=VECTOR('',#461,1.);
#334=VECTOR('',#464,1.);
#335=VECTOR('',#469,1.);
#336=VECTOR('',#470,1.);
#337=VECTOR('',#477,1.);
#338=VECTOR('',#478,1.);
#339=COLOUR_RGB('Strong Stone',0.576470588235294,0.54508278019379,0.392156862745098);
#340=COLOUR_RGB('spare part',0.301960784313725,0.301960784313725,0.301960784313725);
#341=CURVE_STYLE('',#343,POSITIVE_LENGTH_MEASURE(0.13),#356);
#342=CURVE_STYLE('',#344,POSITIVE_LENGTH_MEASURE(0.13),#339);
#343=DRAUGHTING_PRE_DEFINED_CURVE_FONT('continuous');
#344=DRAUGHTING_PRE_DEFINED_CURVE_FONT('continuous');
#345=PRESENTATION_LAYER_ASSIGNMENT('1','Layer 1',(#490,#358,#359,#33));
#346=STYLED_ITEM('',(#350),#490);
#347=STYLED_ITEM('',(#351),#358);
#348=STYLED_ITEM('',(#352),#359);
#349=STYLED_ITEM('',(#353),#33);
#350=PRESENTATION_STYLE_ASSIGNMENT((#354));
#351=PRESENTATION_STYLE_ASSIGNMENT((#341));
#352=PRESENTATION_STYLE_ASSIGNMENT((#342));
#353=PRESENTATION_STYLE_ASSIGNMENT((#28));
#354=POINT_STYLE('',#355,POSITIVE_LENGTH_MEASURE(3.),#356);
#355=PRE_DEFINED_POINT_MARKER_SYMBOL('plus');
#356=DRAUGHTING_PRE_DEFINED_COLOUR('yellow');
#357=AXIS2_PLACEMENT_3D('',#489,#393,#394);
#358=AXIS2_PLACEMENT_3D('PCS',#491,#395,#396);
#359=AXIS2_PLACEMENT_3D('',#492,#397,#398);
#360=AXIS2_PLACEMENT_3D('',#496,#400,#401);
#361=AXIS2_PLACEMENT_3D('',#500,#403,#404);
#362=AXIS2_PLACEMENT_3D('',#501,#405,#406);
#363=AXIS2_PLACEMENT_3D('',#506,#409,#410);
#364=AXIS2_PLACEMENT_3D('',#507,#411,#412);
#365=AXIS2_PLACEMENT_3D('',#510,#414,#415);
#366=AXIS2_PLACEMENT_3D('',#513,#417,#418);
#367=AXIS2_PLACEMENT_3D('',#514,#419,#420);
#368=AXIS2_PLACEMENT_3D('',#515,#421,#422);
#369=AXIS2_PLACEMENT_3D('',#516,#423,#424);
#370=AXIS2_PLACEMENT_3D('',#517,#425,#426);
#371=AXIS2_PLACEMENT_3D('',#518,#427,#428);
#372=AXIS2_PLACEMENT_3D('',#519,#429,#430);
#373=AXIS2_PLACEMENT_3D('',#520,#431,#432);
#374=AXIS2_PLACEMENT_3D('',#521,#433,#434);
#375=AXIS2_PLACEMENT_3D('',#526,#437,#438);
#376=AXIS2_PLACEMENT_3D('',#527,#439,#440);
#377=AXIS2_PLACEMENT_3D('',#528,#441,#442);
#378=AXIS2_PLACEMENT_3D('',#541,#449,#450);
#379=AXIS2_PLACEMENT_3D('',#550,#453,#454);
#380=AXIS2_PLACEMENT_3D('',#557,#456,#457);
#381=AXIS2_PLACEMENT_3D('',#564,#459,#460);
#382=AXIS2_PLACEMENT_3D('',#571,#462,#463);
#383=AXIS2_PLACEMENT_3D('',#578,#465,#466);
#384=AXIS2_PLACEMENT_3D('',#583,#467,#468);
#385=AXIS2_PLACEMENT_3D('',#588,#471,#472);
#386=AXIS2_PLACEMENT_3D('',#590,#473,#474);
#387=AXIS2_PLACEMENT_3D('',#591,#475,#476);
#388=AXIS2_PLACEMENT_3D('',#595,#479,#480);
#389=AXIS2_PLACEMENT_3D('',#596,#481,#482);
#390=AXIS2_PLACEMENT_3D('',#597,#483,#484);
#391=AXIS2_PLACEMENT_3D('',#598,#485,#486);
#392=AXIS2_PLACEMENT_3D('',#599,#487,#488);
#393=DIRECTION('',(0.,0.,1.));
#394=DIRECTION('',(1.,0.,0.));
#395=DIRECTION('',(0.,0.,1.));
#396=DIRECTION('',(1.,0.,0.));
#397=DIRECTION('',(0.,0.,1.));
#398=DIRECTION('',(1.,0.,0.));
#399=DIRECTION('',(7.756949399369E-11,-3.722548207192E-12,1.));
#400=DIRECTION('',(0.,0.,-1.));
#401=DIRECTION('',(0.,-1.,0.));
#402=DIRECTION('',(-7.756918477642E-11,3.722384416709E-12,1.));
#403=DIRECTION('',(0.,0.,1.));
#404=DIRECTION('',(0.,1.,0.));
#405=DIRECTION('',(0.,0.,-1.));
#406=DIRECTION('',(0.,-1.,0.));
#407=DIRECTION('',(-7.4358077740615E-11,-0.707106781186547,0.707106781186547));
#408=DIRECTION('',(7.4357759676625E-11,0.707106781186547,0.707106781186547));
#409=DIRECTION('',(0.,0.,1.));
#410=DIRECTION('',(0.,1.,0.));
#411=DIRECTION('',(0.,0.,-1.));
#412=DIRECTION('',(-1.,0.,5.28298212853649E-17));
#413=DIRECTION('',(2.27673052943798E-10,0.866025403776993,-0.500000000012896));
#414=DIRECTION('',(0.,0.,-1.));
#415=DIRECTION('',(0.,-1.,0.));
#416=DIRECTION('',(-2.27673894239898E-10,-0.866025403776993,-0.500000000012896));
#417=DIRECTION('',(0.,0.,1.));
#418=DIRECTION('',(0.,1.,3.62891748842376E-17));
#419=DIRECTION('',(0.,0.,1.));
#420=DIRECTION('',(0.,-1.,0.));
#421=DIRECTION('',(0.,0.,1.));
#422=DIRECTION('',(0.,-1.,0.));
#423=DIRECTION('',(0.,0.,1.));
#424=DIRECTION('',(0.,1.,3.62891748842376E-17));
#425=DIRECTION('',(0.,0.,1.));
#426=DIRECTION('',(0.,-1.,0.));
#427=DIRECTION('',(0.,0.,-1.));
#428=DIRECTION('',(-1.,0.,5.28298212853649E-17));
#429=DIRECTION('',(0.,0.,1.));
#430=DIRECTION('',(0.,-1.,0.));
#431=DIRECTION('',(0.,0.,-1.));
#432=DIRECTION('',(0.,-1.,0.));
#433=DIRECTION('',(0.,0.,1.));
#434=DIRECTION('',(0.,-1.,0.));
#435=DIRECTION('',(0.,-0.866025403784429,-0.500000000000017));
#436=DIRECTION('',(0.,0.866025403784429,-0.500000000000017));
#437=DIRECTION('',(0.,0.,1.));
#438=DIRECTION('',(0.,1.,-1.72279132190847E-17));
#439=DIRECTION('',(0.,0.,-1.));
#440=DIRECTION('',(0.,-1.,0.));
#441=DIRECTION('',(0.,0.,1.));
#442=DIRECTION('',(0.,1.,-1.72279132190847E-17));
#443=DIRECTION('',(-1.,0.,0.));
#444=DIRECTION('',(-0.500000000000017,-0.866025403784429,0.));
#445=DIRECTION('',(0.500000000000017,-0.866025403784429,0.));
#446=DIRECTION('',(1.,0.,0.));
#447=DIRECTION('',(0.500000000000017,0.866025403784429,0.));
#448=DIRECTION('',(-0.500000000000017,0.866025403784429,0.));
#449=DIRECTION('',(0.,0.,-1.));
#450=DIRECTION('',(0.,-1.,0.));
#451=DIRECTION('',(0.,0.,-1.));
#452=DIRECTION('',(0.,0.,-1.));
#453=DIRECTION('',(-0.866025403784429,-0.500000000000017,0.));
#454=DIRECTION('',(0.500000000000017,-0.866025403784429,0.));
#455=DIRECTION('',(0.,0.,-1.));
#456=DIRECTION('',(0.,-1.,0.));
#457=DIRECTION('',(1.,0.,0.));
#458=DIRECTION('',(0.,0.,-1.));
#459=DIRECTION('',(0.866025403784429,-0.500000000000017,0.));
#460=DIRECTION('',(0.500000000000017,0.866025403784429,0.));
#461=DIRECTION('',(0.,0.,-1.));
#462=DIRECTION('',(0.866025403784429,0.500000000000017,0.));
#463=DIRECTION('',(-0.500000000000017,0.866025403784429,0.));
#464=DIRECTION('',(0.,0.,-1.));
#465=DIRECTION('',(0.,1.,0.));
#466=DIRECTION('',(-1.,0.,0.));
#467=DIRECTION('',(-0.866025403784429,0.500000000000017,0.));
#468=DIRECTION('',(-0.500000000000017,-0.866025403784429,0.));
#469=DIRECTION('',(-0.939692620785897,0.,-0.342020143325699));
#470=DIRECTION('',(0.939692620785897,0.,-0.342020143325699));
#471=DIRECTION('',(0.,0.,-1.));
#472=DIRECTION('',(0.,1.,0.));
#473=DIRECTION('',(0.,0.,-1.));
#474=DIRECTION('',(-1.,0.,0.));
#475=DIRECTION('',(0.,0.,-1.));
#476=DIRECTION('',(1.,0.,-1.58585521105404E-17));
#477=DIRECTION('',(0.,0.,-1.));
#478=DIRECTION('',(0.,0.,-1.));
#479=DIRECTION('',(0.,0.,-1.));
#480=DIRECTION('',(0.,-1.,0.));
#481=DIRECTION('',(0.,0.,-1.));
#482=DIRECTION('',(0.,-1.,0.));
#483=DIRECTION('',(0.,0.,-1.));
#484=DIRECTION('',(1.,0.,0.));
#485=DIRECTION('',(0.,0.,-1.));
#486=DIRECTION('',(1.,0.,-1.58585521105404E-17));
#487=DIRECTION('',(0.,0.,-1.));
#488=DIRECTION('',(0.,-1.,0.));
#489=CARTESIAN_POINT('',(0.,0.,0.));
#490=CARTESIAN_POINT('',(0.,0.,0.));
#491=CARTESIAN_POINT('',(0.,0.,0.));
#492=CARTESIAN_POINT('',(0.,0.,0.));
#493=CARTESIAN_POINT('',(0.,2.,0.2886751345948));
#494=CARTESIAN_POINT('',(0.,2.,0.2886751345948));
#495=CARTESIAN_POINT('',(0.,2.,3.));
#496=CARTESIAN_POINT('',(0.,0.,0.2886751345948));
#497=CARTESIAN_POINT('',(0.,-2.,0.2886751345948));
#498=CARTESIAN_POINT('',(0.,-2.,0.2886751345948));
#499=CARTESIAN_POINT('',(0.,-2.,3.));
#500=CARTESIAN_POINT('',(0.,0.,3.));
#501=CARTESIAN_POINT('',(0.,0.,4.2));
#502=CARTESIAN_POINT('',(1.051581407799E-10,0.9999999999949,4.000000000005));
#503=CARTESIAN_POINT('',(0.,1.,4.));
#504=CARTESIAN_POINT('',(-1.051577522018E-10,-0.999999999995,4.000000000005));
#505=CARTESIAN_POINT('',(0.,-1.,4.));
#506=CARTESIAN_POINT('',(0.,0.,4.));
#507=CARTESIAN_POINT('',(0.,0.,3.500000000007));
#508=CARTESIAN_POINT('',(-1.051577522018E-10,-0.999999999995,4.000000000005));
#509=CARTESIAN_POINT('',(0.,-0.6,3.769059892324));
#510=CARTESIAN_POINT('',(0.,0.,3.769059892324));
#511=CARTESIAN_POINT('',(0.,0.6,3.769059892324));
#512=CARTESIAN_POINT('',(1.051581407799E-10,0.9999999999949,4.000000000005));
#513=CARTESIAN_POINT('',(0.,0.,3.884529946162));
#514=CARTESIAN_POINT('',(0.,0.,3.769059892324));
#515=CARTESIAN_POINT('',(0.,0.,4.));
#516=CARTESIAN_POINT('',(0.,0.,3.884529946162));
#517=CARTESIAN_POINT('',(0.,0.,3.));
#518=CARTESIAN_POINT('',(0.,0.,3.500000000007));
#519=CARTESIAN_POINT('',(0.,0.,0.2886751345948));
#520=CARTESIAN_POINT('',(0.,0.,4.2));
#521=CARTESIAN_POINT('',(0.,0.,0.));
#522=CARTESIAN_POINT('',(0.,-1.5,0.));
#523=CARTESIAN_POINT('',(0.,1.5,0.));
#524=CARTESIAN_POINT('',(0.,1.5,0.));
#525=CARTESIAN_POINT('',(0.,-1.5,0.));
#526=CARTESIAN_POINT('',(0.,0.,0.1443375672974));
#527=CARTESIAN_POINT('',(0.,0.,0.));
#528=CARTESIAN_POINT('',(0.,0.,0.1443375672974));
#529=CARTESIAN_POINT('',(0.5773502691896,-1.,0.));
#530=CARTESIAN_POINT('',(0.5773502691896,-1.,0.));
#531=CARTESIAN_POINT('',(-0.5773502691896,-1.,0.));
#532=CARTESIAN_POINT('',(1.154700538379,0.,0.));
#533=CARTESIAN_POINT('',(1.154700538379,0.,0.));
#534=CARTESIAN_POINT('',(0.5773502691896,1.,0.));
#535=CARTESIAN_POINT('',(0.5773502691896,1.,0.));
#536=CARTESIAN_POINT('',(-0.5773502691896,1.,0.));
#537=CARTESIAN_POINT('',(-0.5773502691896,1.,0.));
#538=CARTESIAN_POINT('',(-1.154700538379,0.,0.));
#539=CARTESIAN_POINT('',(-1.154700538379,0.,0.));
#540=CARTESIAN_POINT('',(-0.5773502691896,-1.,0.));
#541=CARTESIAN_POINT('',(0.,0.,0.));
#542=CARTESIAN_POINT('',(-1.154700538379,0.,1.6));
#543=CARTESIAN_POINT('',(-1.15470053837911,-3.37813856235238E-14,1.60000000000013));
#544=CARTESIAN_POINT('',(-0.577350269189589,-1.00000000000002,1.60000000000025));
#545=CARTESIAN_POINT('',(-0.766690556264682,-0.672053002866296,1.668914228643));
#546=CARTESIAN_POINT('',(-0.965360251304012,-0.327946997133759,1.66891422864288));
#547=CARTESIAN_POINT('',(-1.15470053837911,-3.37813856235238E-14,1.60000000000013));
#548=CARTESIAN_POINT('',(-0.577350269189589,-1.00000000000002,1.60000000000025));
#549=CARTESIAN_POINT('',(-0.5773502691896,-1.,1.6));
#550=CARTESIAN_POINT('',(-0.5773502691896,-1.,0.));
#551=CARTESIAN_POINT('',(0.577350269189622,-1.,1.60000000000025));
#552=CARTESIAN_POINT('',(0.198669695039439,-1.,1.668914228643));
#553=CARTESIAN_POINT('',(-0.198669695039406,-1.00000000000002,1.668914228643));
#554=CARTESIAN_POINT('',(-0.577350269189589,-1.00000000000002,1.60000000000025));
#555=CARTESIAN_POINT('',(0.577350269189622,-1.,1.60000000000025));
#556=CARTESIAN_POINT('',(0.5773502691896,-1.,1.6));
#557=CARTESIAN_POINT('',(0.5773502691896,-1.,0.));
#558=CARTESIAN_POINT('',(1.15470053837911,3.37813856235238E-14,1.60000000000013));
#559=CARTESIAN_POINT('',(0.965360251304009,-0.327946997133696,1.66891422864289));
#560=CARTESIAN_POINT('',(0.766690556264719,-0.672053002866271,1.66891422864302));
#561=CARTESIAN_POINT('',(0.577350269189622,-1.,1.60000000000025));
#562=CARTESIAN_POINT('',(1.15470053837911,3.37813856235238E-14,1.60000000000013));
#563=CARTESIAN_POINT('',(1.154700538379,0.,1.6));
#564=CARTESIAN_POINT('',(1.154700538379,0.,0.));
#565=CARTESIAN_POINT('',(0.577350269189589,1.00000000000002,1.60000000000025));
#566=CARTESIAN_POINT('',(0.766690556264682,0.672053002866296,1.668914228643));
#567=CARTESIAN_POINT('',(0.965360251304012,0.327946997133759,1.66891422864288));
#568=CARTESIAN_POINT('',(1.15470053837911,3.37813856235238E-14,1.60000000000013));
#569=CARTESIAN_POINT('',(0.577350269189589,1.00000000000002,1.60000000000025));
#570=CARTESIAN_POINT('',(0.5773502691896,1.,1.6));
#571=CARTESIAN_POINT('',(0.5773502691896,1.,0.));
#572=CARTESIAN_POINT('',(-0.577350269189622,1.,1.60000000000025));
#573=CARTESIAN_POINT('',(-0.198669695039439,1.,1.668914228643));
#574=CARTESIAN_POINT('',(0.198669695039406,1.00000000000002,1.668914228643));
#575=CARTESIAN_POINT('',(0.577350269189589,1.00000000000002,1.60000000000025));
#576=CARTESIAN_POINT('',(-0.577350269189622,1.,1.60000000000025));
#577=CARTESIAN_POINT('',(-0.5773502691896,1.,1.6));
#578=CARTESIAN_POINT('',(-0.5773502691896,1.,0.));
#579=CARTESIAN_POINT('',(-1.15470053837911,-3.37813856235238E-14,1.60000000000013));
#580=CARTESIAN_POINT('',(-0.965360251304009,0.327946997133696,1.66891422864289));
#581=CARTESIAN_POINT('',(-0.766690556264719,0.672053002866271,1.66891422864302));
#582=CARTESIAN_POINT('',(-0.577350269189622,1.,1.60000000000025));
#583=CARTESIAN_POINT('',(-1.154700538379,0.,0.));
#584=CARTESIAN_POINT('',(-1.154700538379,0.,1.6));
#585=CARTESIAN_POINT('',(-0.6,0.,1.801894484901));
#586=CARTESIAN_POINT('',(1.154700538379,0.,1.6));
#587=CARTESIAN_POINT('',(0.6,0.,1.801894484901));
#588=CARTESIAN_POINT('',(0.,0.,1.801894484901));
#589=CARTESIAN_POINT('',(0.,0.6,1.801894484901));
#590=CARTESIAN_POINT('',(0.,0.,1.801894484901));
#591=CARTESIAN_POINT('',(0.,0.,1.700947242451));
#592=CARTESIAN_POINT('',(0.,0.6,3.769059892324));
#593=CARTESIAN_POINT('',(0.,-0.6,3.769059892324));
#594=CARTESIAN_POINT('',(0.,-0.6,1.801894484901));
#595=CARTESIAN_POINT('',(0.,0.,1.801894484901));
#596=CARTESIAN_POINT('',(0.,0.,4.2));
#597=CARTESIAN_POINT('',(0.,0.,1.801894484901));
#598=CARTESIAN_POINT('',(0.,0.,1.700947242451));
#599=CARTESIAN_POINT('',(0.,0.,4.2));
#600=MECHANICAL_DESIGN_GEOMETRIC_PRESENTATION_REPRESENTATION('',(#346,#347,
#348,#349),#601);
#601=(
GEOMETRIC_REPRESENTATION_CONTEXT(3)
GLOBAL_UNCERTAINTY_ASSIGNED_CONTEXT((#602))
GLOBAL_UNIT_ASSIGNED_CONTEXT((#608,#604,#603))
REPRESENTATION_CONTEXT('HSD04004H12','TOP_LEVEL_ASSEMBLY_PART')
);
#602=UNCERTAINTY_MEASURE_WITH_UNIT(LENGTH_MEASURE(0.0508),#608,
'DISTANCE_ACCURACY_VALUE','Maximum Tolerance applied to model');
#603=(
NAMED_UNIT(*)
SI_UNIT($,.STERADIAN.)
SOLID_ANGLE_UNIT()
);
#604=(
CONVERSION_BASED_UNIT('DEGREE',#606)
NAMED_UNIT(#605)
PLANE_ANGLE_UNIT()
);
#605=DIMENSIONAL_EXPONENTS(0.,0.,0.,0.,0.,0.,0.);
#606=PLANE_ANGLE_MEASURE_WITH_UNIT(PLANE_ANGLE_MEASURE(0.0174532925),#607);
#607=(
NAMED_UNIT(*)
PLANE_ANGLE_UNIT()
SI_UNIT($,.RADIAN.)
);
#608=(
LENGTH_UNIT()
NAMED_UNIT(*)
SI_UNIT(.MILLI.,.METRE.)
);
ENDSEC;
END-ISO-10303-21;
