ISO-10303-21;
HEADER;
/* Generated by software containing ST-Developer
 * from STEP Tools, Inc. (www.steptools.com) 
 */
/* OPTION: using custom schema-name function */

FILE_DESCRIPTION(
/* description */ (''),
/* implementation_level */ '2;1');

FILE_NAME(
/* name */ 'CR5.stp',
/* time_stamp */ '2022-02-03T10:48:08+09:00',
/* author */ (''),
/* organization */ (''),
/* preprocessor_version */ 'ST-DEVELOPER v16',
/* originating_system */ 'SIEMENS PLM Software NX 10.0',
/* authorisation */ '');

FILE_SCHEMA (('AUTOMOTIVE_DESIGN { 1 0 10303 214 3 1 1 1 }'));
ENDSEC;

DATA;
#10=CONSTRUCTIVE_GEOMETRY_REPRESENTATION_RELATIONSHIP(
'supplemental geometry','',#26,#11);
#11=CONSTRUCTIVE_GEOMETRY_REPRESENTATION('supplemental geometry',(#184,
#185),#285);
#12=GEOMETRICALLY_BOUNDED_WIREFRAME_SHAPE_REPRESENTATION('CR5-None',(#27),
#285);
#13=SHAPE_REPRESENTATION_RELATIONSHIP('None',
'relationship between CR5-None and CR5-None',#26,#15);
#14=SHAPE_REPRESENTATION_RELATIONSHIP('None',
'relationship between CR5-None and CR5-None',#26,#12);
#15=ADVANCED_BREP_SHAPE_REPRESENTATION('CR5-None',(#33),#285);
#16=SHAPE_DEFINITION_REPRESENTATION(#17,#26);
#17=PRODUCT_DEFINITION_SHAPE('','',#18);
#18=PRODUCT_DEFINITION('part definition','',#20,#19);
#19=PRODUCT_DEFINITION_CONTEXT('part definition',#25,'design');
#20=PRODUCT_DEFINITION_FORMATION_WITH_SPECIFIED_SOURCE(' ',' ',#22,
 .NOT_KNOWN.);
#21=PRODUCT_RELATED_PRODUCT_CATEGORY('part','',(#22));
#22=PRODUCT('CR5','CR5','NOT SPECIFIED',(#23));
#23=PRODUCT_CONTEXT('',#25,'mechanical');
#24=APPLICATION_PROTOCOL_DEFINITION('international standard',
'automotive_design',2010,#25);
#25=APPLICATION_CONTEXT(
'core data for automotive mechanical design processes');
#26=SHAPE_REPRESENTATION('CR5-None',(#183),#285);
#27=GEOMETRIC_CURVE_SET('None',(#243));
#28=SURFACE_STYLE_USAGE(.BOTH.,#29);
#29=SURFACE_SIDE_STYLE('',(#30));
#30=SURFACE_STYLE_FILL_AREA(#31);
#31=FILL_AREA_STYLE('',(#32));
#32=FILL_AREA_STYLE_COLOUR('',#166);
#33=MANIFOLD_SOLID_BREP('',#34);
#34=CLOSED_SHELL('',(#37,#38,#39,#40,#41,#42,#43,#44));
#35=CYLINDRICAL_SURFACE('',#190,3.86);
#36=CYLINDRICAL_SURFACE('',#194,2.545);
#37=ADVANCED_FACE('',(#51),#45,.F.);
#38=ADVANCED_FACE('',(#52),#35,.T.);
#39=ADVANCED_FACE('',(#53),#46,.T.);
#40=ADVANCED_FACE('',(#54),#47,.T.);
#41=ADVANCED_FACE('',(#55),#36,.F.);
#42=ADVANCED_FACE('',(#56),#48,.T.);
#43=ADVANCED_FACE('',(#57),#49,.T.);
#44=ADVANCED_FACE('',(#58),#50,.T.);
#45=PLANE('',#188);
#46=PLANE('',#191);
#47=PLANE('',#192);
#48=PLANE('',#195);
#49=PLANE('',#196);
#50=PLANE('',#197);
#51=FACE_OUTER_BOUND('',#59,.T.);
#52=FACE_OUTER_BOUND('',#60,.T.);
#53=FACE_OUTER_BOUND('',#61,.T.);
#54=FACE_OUTER_BOUND('',#62,.T.);
#55=FACE_OUTER_BOUND('',#63,.T.);
#56=FACE_OUTER_BOUND('',#64,.T.);
#57=FACE_OUTER_BOUND('',#65,.T.);
#58=FACE_OUTER_BOUND('',#66,.T.);
#59=EDGE_LOOP('',(#71,#72,#73,#74,#75,#76));
#60=EDGE_LOOP('',(#77,#78,#79,#80));
#61=EDGE_LOOP('',(#81,#82,#83,#84));
#62=EDGE_LOOP('',(#85,#86,#87,#88));
#63=EDGE_LOOP('',(#89,#90,#91,#92));
#64=EDGE_LOOP('',(#93,#94,#95,#96));
#65=EDGE_LOOP('',(#97,#98,#99,#100));
#66=EDGE_LOOP('',(#101,#102,#103,#104,#105,#106));
#67=CIRCLE('',#186,2.545);
#68=CIRCLE('',#187,3.86);
#69=CIRCLE('',#189,3.86);
#70=CIRCLE('',#193,2.545);
#71=ORIENTED_EDGE('',*,*,#119,.F.);
#72=ORIENTED_EDGE('',*,*,#120,.F.);
#73=ORIENTED_EDGE('',*,*,#121,.F.);
#74=ORIENTED_EDGE('',*,*,#122,.F.);
#75=ORIENTED_EDGE('',*,*,#123,.F.);
#76=ORIENTED_EDGE('',*,*,#124,.F.);
#77=ORIENTED_EDGE('',*,*,#125,.T.);
#78=ORIENTED_EDGE('',*,*,#126,.F.);
#79=ORIENTED_EDGE('',*,*,#127,.F.);
#80=ORIENTED_EDGE('',*,*,#124,.T.);
#81=ORIENTED_EDGE('',*,*,#127,.T.);
#82=ORIENTED_EDGE('',*,*,#128,.F.);
#83=ORIENTED_EDGE('',*,*,#129,.F.);
#84=ORIENTED_EDGE('',*,*,#119,.T.);
#85=ORIENTED_EDGE('',*,*,#129,.T.);
#86=ORIENTED_EDGE('',*,*,#130,.F.);
#87=ORIENTED_EDGE('',*,*,#131,.F.);
#88=ORIENTED_EDGE('',*,*,#120,.T.);
#89=ORIENTED_EDGE('',*,*,#131,.T.);
#90=ORIENTED_EDGE('',*,*,#132,.F.);
#91=ORIENTED_EDGE('',*,*,#133,.F.);
#92=ORIENTED_EDGE('',*,*,#121,.T.);
#93=ORIENTED_EDGE('',*,*,#133,.T.);
#94=ORIENTED_EDGE('',*,*,#134,.F.);
#95=ORIENTED_EDGE('',*,*,#135,.F.);
#96=ORIENTED_EDGE('',*,*,#122,.T.);
#97=ORIENTED_EDGE('',*,*,#135,.T.);
#98=ORIENTED_EDGE('',*,*,#136,.F.);
#99=ORIENTED_EDGE('',*,*,#125,.F.);
#100=ORIENTED_EDGE('',*,*,#123,.T.);
#101=ORIENTED_EDGE('',*,*,#136,.T.);
#102=ORIENTED_EDGE('',*,*,#134,.T.);
#103=ORIENTED_EDGE('',*,*,#132,.T.);
#104=ORIENTED_EDGE('',*,*,#130,.T.);
#105=ORIENTED_EDGE('',*,*,#128,.T.);
#106=ORIENTED_EDGE('',*,*,#126,.T.);
#107=VERTEX_POINT('',#247);
#108=VERTEX_POINT('',#248);
#109=VERTEX_POINT('',#250);
#110=VERTEX_POINT('',#252);
#111=VERTEX_POINT('',#254);
#112=VERTEX_POINT('',#256);
#113=VERTEX_POINT('',#260);
#114=VERTEX_POINT('',#262);
#115=VERTEX_POINT('',#266);
#116=VERTEX_POINT('',#270);
#117=VERTEX_POINT('',#274);
#118=VERTEX_POINT('',#278);
#119=EDGE_CURVE('',#107,#108,#137,.T.);
#120=EDGE_CURVE('',#109,#107,#138,.T.);
#121=EDGE_CURVE('',#110,#109,#67,.T.);
#122=EDGE_CURVE('',#111,#110,#139,.T.);
#123=EDGE_CURVE('',#112,#111,#140,.T.);
#124=EDGE_CURVE('',#108,#112,#68,.T.);
#125=EDGE_CURVE('',#112,#113,#141,.T.);
#126=EDGE_CURVE('',#114,#113,#69,.T.);
#127=EDGE_CURVE('',#108,#114,#142,.T.);
#128=EDGE_CURVE('',#115,#114,#143,.T.);
#129=EDGE_CURVE('',#107,#115,#144,.T.);
#130=EDGE_CURVE('',#116,#115,#145,.T.);
#131=EDGE_CURVE('',#109,#116,#146,.T.);
#132=EDGE_CURVE('',#117,#116,#70,.T.);
#133=EDGE_CURVE('',#110,#117,#147,.T.);
#134=EDGE_CURVE('',#118,#117,#148,.T.);
#135=EDGE_CURVE('',#111,#118,#149,.T.);
#136=EDGE_CURVE('',#113,#118,#150,.T.);
#137=LINE('',#246,#151);
#138=LINE('',#249,#152);
#139=LINE('',#253,#153);
#140=LINE('',#255,#154);
#141=LINE('',#259,#155);
#142=LINE('',#263,#156);
#143=LINE('',#265,#157);
#144=LINE('',#267,#158);
#145=LINE('',#269,#159);
#146=LINE('',#271,#160);
#147=LINE('',#275,#161);
#148=LINE('',#277,#162);
#149=LINE('',#279,#163);
#150=LINE('',#281,#164);
#151=VECTOR('',#204,1.);
#152=VECTOR('',#205,1.);
#153=VECTOR('',#208,1.);
#154=VECTOR('',#209,1.);
#155=VECTOR('',#214,1.);
#156=VECTOR('',#217,1.);
#157=VECTOR('',#220,1.);
#158=VECTOR('',#221,1.);
#159=VECTOR('',#224,1.);
#160=VECTOR('',#225,1.);
#161=VECTOR('',#230,1.);
#162=VECTOR('',#233,1.);
#163=VECTOR('',#234,1.);
#164=VECTOR('',#237,1.);
#165=COLOUR_RGB('Strong Stone',0.576470588235294,0.54508278019379,0.392156862745098);
#166=COLOUR_RGB('spare part',0.301960784313725,0.301960784313725,0.301960784313725);
#167=CURVE_STYLE('',#169,POSITIVE_LENGTH_MEASURE(0.13),#182);
#168=CURVE_STYLE('',#170,POSITIVE_LENGTH_MEASURE(0.13),#165);
#169=DRAUGHTING_PRE_DEFINED_CURVE_FONT('continuous');
#170=DRAUGHTING_PRE_DEFINED_CURVE_FONT('continuous');
#171=PRESENTATION_LAYER_ASSIGNMENT('1','Layer 1',(#243,#184,#185,#33));
#172=STYLED_ITEM('',(#176),#243);
#173=STYLED_ITEM('',(#177),#184);
#174=STYLED_ITEM('',(#178),#185);
#175=STYLED_ITEM('',(#179),#33);
#176=PRESENTATION_STYLE_ASSIGNMENT((#180));
#177=PRESENTATION_STYLE_ASSIGNMENT((#167));
#178=PRESENTATION_STYLE_ASSIGNMENT((#168));
#179=PRESENTATION_STYLE_ASSIGNMENT((#28));
#180=POINT_STYLE('',#181,POSITIVE_LENGTH_MEASURE(3.),#182);
#181=PRE_DEFINED_POINT_MARKER_SYMBOL('plus');
#182=DRAUGHTING_PRE_DEFINED_COLOUR('yellow');
#183=AXIS2_PLACEMENT_3D('',#242,#198,#199);
#184=AXIS2_PLACEMENT_3D('PCS',#244,#200,#201);
#185=AXIS2_PLACEMENT_3D('',#245,#202,#203);
#186=AXIS2_PLACEMENT_3D('',#251,#206,#207);
#187=AXIS2_PLACEMENT_3D('',#257,#210,#211);
#188=AXIS2_PLACEMENT_3D('',#258,#212,#213);
#189=AXIS2_PLACEMENT_3D('',#261,#215,#216);
#190=AXIS2_PLACEMENT_3D('',#264,#218,#219);
#191=AXIS2_PLACEMENT_3D('',#268,#222,#223);
#192=AXIS2_PLACEMENT_3D('',#272,#226,#227);
#193=AXIS2_PLACEMENT_3D('',#273,#228,#229);
#194=AXIS2_PLACEMENT_3D('',#276,#231,#232);
#195=AXIS2_PLACEMENT_3D('',#280,#235,#236);
#196=AXIS2_PLACEMENT_3D('',#282,#238,#239);
#197=AXIS2_PLACEMENT_3D('',#283,#240,#241);
#198=DIRECTION('',(0.,0.,1.));
#199=DIRECTION('',(1.,0.,0.));
#200=DIRECTION('',(0.,0.,1.));
#201=DIRECTION('',(1.,0.,0.));
#202=DIRECTION('',(0.,0.,1.));
#203=DIRECTION('',(1.,0.,0.));
#204=DIRECTION('',(0.936672189248387,0.350207381259495,0.));
#205=DIRECTION('',(-0.212670321693594,0.977124011715372,0.));
#206=DIRECTION('',(0.,0.,1.));
#207=DIRECTION('',(-0.919569535313072,0.392927308447888,0.));
#208=DIRECTION('',(-0.212670321693594,-0.977124011715372,0.));
#209=DIRECTION('',(0.936672189248387,-0.350207381259495,0.));
#210=DIRECTION('',(0.,0.,-1.));
#211=DIRECTION('',(0.810678019299795,0.585492227979297,0.));
#212=DIRECTION('',(0.,0.,-1.));
#213=DIRECTION('',(0.,-1.,0.));
#214=DIRECTION('',(0.,0.,-1.));
#215=DIRECTION('',(0.,0.,-1.));
#216=DIRECTION('',(0.810678019299795,0.585492227979297,0.));
#217=DIRECTION('',(0.,0.,-1.));
#218=DIRECTION('',(0.,0.,-1.));
#219=DIRECTION('',(0.,-1.,0.));
#220=DIRECTION('',(0.936672189248387,0.350207381259495,0.));
#221=DIRECTION('',(0.,0.,-1.));
#222=DIRECTION('',(-0.350207381259495,0.936672189248387,0.));
#223=DIRECTION('',(-0.936672189248387,-0.350207381259495,0.));
#224=DIRECTION('',(-0.212670321693594,0.977124011715372,0.));
#225=DIRECTION('',(0.,0.,-1.));
#226=DIRECTION('',(-0.977124011715372,-0.212670321693594,0.));
#227=DIRECTION('',(0.212670321693594,-0.977124011715372,0.));
#228=DIRECTION('',(0.,0.,1.));
#229=DIRECTION('',(-0.919569535313072,0.392927308447888,0.));
#230=DIRECTION('',(0.,0.,-1.));
#231=DIRECTION('',(0.,0.,-1.));
#232=DIRECTION('',(0.,-1.,0.));
#233=DIRECTION('',(-0.212670321693594,-0.977124011715372,0.));
#234=DIRECTION('',(0.,0.,-1.));
#235=DIRECTION('',(0.977124011715372,-0.212670321693594,0.));
#236=DIRECTION('',(0.212670321693594,0.977124011715372,0.));
#237=DIRECTION('',(0.936672189248387,-0.350207381259495,0.));
#238=DIRECTION('',(0.350207381259495,0.936672189248387,0.));
#239=DIRECTION('',(-0.936672189248387,0.350207381259495,0.));
#240=DIRECTION('',(0.,0.,-1.));
#241=DIRECTION('',(0.,-1.,0.));
#242=CARTESIAN_POINT('',(0.,0.,0.));
#243=CARTESIAN_POINT('',(0.,0.,0.));
#244=CARTESIAN_POINT('',(0.,0.,0.));
#245=CARTESIAN_POINT('',(0.,0.,0.));
#246=CARTESIAN_POINT('',(2.112860986805,2.045,0.));
#247=CARTESIAN_POINT('',(2.112860986805,2.045,0.));
#248=CARTESIAN_POINT('',(3.129217154497,2.425,0.));
#249=CARTESIAN_POINT('',(2.340304467372,1.,0.));
#250=CARTESIAN_POINT('',(2.340304467372,1.,0.));
#251=CARTESIAN_POINT('',(0.,0.,0.));
#252=CARTESIAN_POINT('',(-2.340304467372,1.,0.));
#253=CARTESIAN_POINT('',(-2.112860986805,2.045,0.));
#254=CARTESIAN_POINT('',(-2.112860986805,2.045,0.));
#255=CARTESIAN_POINT('',(-3.129217154497,2.425,0.));
#256=CARTESIAN_POINT('',(-3.129217154497,2.425,0.));
#257=CARTESIAN_POINT('',(0.,0.165,0.));
#258=CARTESIAN_POINT('',(0.,0.,0.));
#259=CARTESIAN_POINT('',(-3.129217154497,2.425,0.));
#260=CARTESIAN_POINT('',(-3.129217154497,2.425,-0.65));
#261=CARTESIAN_POINT('',(0.,0.165,-0.65));
#262=CARTESIAN_POINT('',(3.129217154497,2.425,-0.65));
#263=CARTESIAN_POINT('',(3.129217154497,2.425,0.));
#264=CARTESIAN_POINT('',(0.,0.165,0.));
#265=CARTESIAN_POINT('',(2.112860986805,2.045,-0.65));
#266=CARTESIAN_POINT('',(2.112860986805,2.045,-0.65));
#267=CARTESIAN_POINT('',(2.112860986805,2.045,0.));
#268=CARTESIAN_POINT('',(2.112860986805,2.045,0.));
#269=CARTESIAN_POINT('',(2.340304467372,1.,-0.65));
#270=CARTESIAN_POINT('',(2.340304467372,1.,-0.65));
#271=CARTESIAN_POINT('',(2.340304467372,1.,0.));
#272=CARTESIAN_POINT('',(2.340304467372,1.,0.));
#273=CARTESIAN_POINT('',(0.,0.,-0.65));
#274=CARTESIAN_POINT('',(-2.340304467372,1.,-0.65));
#275=CARTESIAN_POINT('',(-2.340304467372,1.,0.));
#276=CARTESIAN_POINT('',(0.,0.,0.));
#277=CARTESIAN_POINT('',(-2.112860986805,2.045,-0.65));
#278=CARTESIAN_POINT('',(-2.112860986805,2.045,-0.65));
#279=CARTESIAN_POINT('',(-2.112860986805,2.045,0.));
#280=CARTESIAN_POINT('',(-2.112860986805,2.045,0.));
#281=CARTESIAN_POINT('',(-3.129217154497,2.425,-0.65));
#282=CARTESIAN_POINT('',(-3.129217154497,2.425,0.));
#283=CARTESIAN_POINT('',(0.,0.,-0.65));
#284=MECHANICAL_DESIGN_GEOMETRIC_PRESENTATION_REPRESENTATION('',(#172,#173,
#174,#175),#285);
#285=(
GEOMETRIC_REPRESENTATION_CONTEXT(3)
GLOBAL_UNCERTAINTY_ASSIGNED_CONTEXT((#286))
GLOBAL_UNIT_ASSIGNED_CONTEXT((#292,#288,#287))
REPRESENTATION_CONTEXT('CR5','TOP_LEVEL_ASSEMBLY_PART')
);
#286=UNCERTAINTY_MEASURE_WITH_UNIT(LENGTH_MEASURE(2.E-5),#292,
'DISTANCE_ACCURACY_VALUE','Maximum Tolerance applied to model');
#287=(
NAMED_UNIT(*)
SI_UNIT($,.STERADIAN.)
SOLID_ANGLE_UNIT()
);
#288=(
CONVERSION_BASED_UNIT('DEGREE',#290)
NAMED_UNIT(#289)
PLANE_ANGLE_UNIT()
);
#289=DIMENSIONAL_EXPONENTS(0.,0.,0.,0.,0.,0.,0.);
#290=PLANE_ANGLE_MEASURE_WITH_UNIT(PLANE_ANGLE_MEASURE(0.0174532925),#291);
#291=(
NAMED_UNIT(*)
PLANE_ANGLE_UNIT()
SI_UNIT($,.RADIAN.)
);
#292=(
LENGTH_UNIT()
NAMED_UNIT(*)
SI_UNIT(.MILLI.,.METRE.)
);
ENDSEC;
END-ISO-10303-21;
