ISO-10303-21;
HEADER;
/* Generated by software containing ST-Developer
 * from STEP Tools, Inc. (www.steptools.com) 
 */
/* OPTION: using custom schema-name function */

FILE_DESCRIPTION(
/* description */ (''),
/* implementation_level */ '2;1');

FILE_NAME(
/* name */ 'BCP141.stp',
/* time_stamp */ '2022-02-03T10:46:22+09:00',
/* author */ (''),
/* organization */ (''),
/* preprocessor_version */ 'ST-DEVELOPER v16',
/* originating_system */ 'SIEMENS PLM Software NX 10.0',
/* authorisation */ '');

FILE_SCHEMA (('AUTOMOTIVE_DESIGN { 1 0 10303 214 3 1 1 1 }'));
ENDSEC;

DATA;
#10=CONSTRUCTIVE_GEOMETRY_REPRESENTATION_RELATIONSHIP(
'supplemental geometry','',#26,#11);
#11=CONSTRUCTIVE_GEOMETRY_REPRESENTATION('supplemental geometry',(#194,
#195),#357);
#12=GEOMETRICALLY_BOUNDED_WIREFRAME_SHAPE_REPRESENTATION('BCP141-None',
(#27),#357);
#13=SHAPE_REPRESENTATION_RELATIONSHIP('None',
'relationship between BCP141-None and BCP141-None',#26,#15);
#14=SHAPE_REPRESENTATION_RELATIONSHIP('None',
'relationship between BCP141-None and BCP141-None',#26,#12);
#15=ADVANCED_BREP_SHAPE_REPRESENTATION('BCP141-None',(#33),#357);
#16=SHAPE_DEFINITION_REPRESENTATION(#17,#26);
#17=PRODUCT_DEFINITION_SHAPE('','',#18);
#18=PRODUCT_DEFINITION('part definition','',#20,#19);
#19=PRODUCT_DEFINITION_CONTEXT('part definition',#25,'design');
#20=PRODUCT_DEFINITION_FORMATION_WITH_SPECIFIED_SOURCE(' ',' ',#22,
 .NOT_KNOWN.);
#21=PRODUCT_RELATED_PRODUCT_CATEGORY('part','',(#22));
#22=PRODUCT('BCP141','BCP141','NOT SPECIFIED',(#23));
#23=PRODUCT_CONTEXT('',#25,'mechanical');
#24=APPLICATION_PROTOCOL_DEFINITION('international standard',
'automotive_design',2010,#25);
#25=APPLICATION_CONTEXT(
'core data for automotive mechanical design processes');
#26=SHAPE_REPRESENTATION('BCP141-None',(#193),#357);
#27=GEOMETRIC_CURVE_SET('None',(#257));
#28=SURFACE_STYLE_USAGE(.BOTH.,#29);
#29=SURFACE_SIDE_STYLE('',(#30));
#30=SURFACE_STYLE_FILL_AREA(#31);
#31=FILL_AREA_STYLE('',(#32));
#32=FILL_AREA_STYLE_COLOUR('',#176);
#33=MANIFOLD_SOLID_BREP('',#34);
#34=CLOSED_SHELL('',(#52,#53,#54,#55,#56,#57,#58,#59,#60));
#35=PLANE('',#202);
#36=PLANE('',#203);
#37=PLANE('',#206);
#38=CYLINDRICAL_SURFACE('',#200,0.55);
#39=CYLINDRICAL_SURFACE('',#210,0.7);
#40=LINE('',#287,#46);
#41=LINE('',#289,#47);
#42=LINE('',#293,#48);
#43=LINE('',#297,#49);
#44=LINE('',#306,#50);
#45=LINE('',#342,#51);
#46=VECTOR('',#224,1.);
#47=VECTOR('',#225,1.);
#48=VECTOR('',#230,1.);
#49=VECTOR('',#233,1.);
#50=VECTOR('',#236,1.);
#51=VECTOR('',#243,1.);
#52=ADVANCED_FACE('',(#65),#61,.F.);
#53=ADVANCED_FACE('',(#66),#38,.F.);
#54=ADVANCED_FACE('',(#67),#35,.T.);
#55=ADVANCED_FACE('',(#68),#36,.F.);
#56=ADVANCED_FACE('',(#69),#62,.T.);
#57=ADVANCED_FACE('',(#70),#37,.F.);
#58=ADVANCED_FACE('',(#71),#63,.T.);
#59=ADVANCED_FACE('',(#72),#39,.T.);
#60=ADVANCED_FACE('',(#73),#64,.T.);
#61=CONICAL_SURFACE('',#198,0.971966991411,45.);
#62=CONICAL_SURFACE('',#205,1.446966991411,45.);
#63=CONICAL_SURFACE('',#208,0.675,18.43494882292);
#64=CONICAL_SURFACE('',#211,1.1,45.);
#65=FACE_OUTER_BOUND('',#74,.T.);
#66=FACE_OUTER_BOUND('',#75,.T.);
#67=FACE_OUTER_BOUND('',#76,.T.);
#68=FACE_OUTER_BOUND('',#77,.T.);
#69=FACE_OUTER_BOUND('',#78,.T.);
#70=FACE_OUTER_BOUND('',#79,.T.);
#71=FACE_OUTER_BOUND('',#80,.T.);
#72=FACE_OUTER_BOUND('',#81,.T.);
#73=FACE_OUTER_BOUND('',#82,.T.);
#74=EDGE_LOOP('',(#90,#91,#92,#93));
#75=EDGE_LOOP('',(#94,#95,#96,#97));
#76=EDGE_LOOP('',(#98,#99,#100,#101));
#77=EDGE_LOOP('',(#102,#103,#104,#105,#106,#107,#108));
#78=EDGE_LOOP('',(#109,#110,#111,#112));
#79=EDGE_LOOP('',(#113,#114,#115,#116,#117,#118,#119));
#80=EDGE_LOOP('',(#120,#121,#122,#123));
#81=EDGE_LOOP('',(#124,#125,#126,#127));
#82=EDGE_LOOP('',(#128,#129,#130,#131));
#83=CIRCLE('',#196,1.393933982822);
#84=CIRCLE('',#197,0.55);
#85=CIRCLE('',#199,0.55);
#86=CIRCLE('',#201,0.65);
#87=CIRCLE('',#204,1.5);
#88=CIRCLE('',#207,0.7);
#89=CIRCLE('',#209,0.7);
#90=ORIENTED_EDGE('',*,*,#146,.F.);
#91=ORIENTED_EDGE('',*,*,#147,.T.);
#92=ORIENTED_EDGE('',*,*,#148,.F.);
#93=ORIENTED_EDGE('',*,*,#149,.T.);
#94=ORIENTED_EDGE('',*,*,#150,.F.);
#95=ORIENTED_EDGE('',*,*,#149,.F.);
#96=ORIENTED_EDGE('',*,*,#151,.T.);
#97=ORIENTED_EDGE('',*,*,#152,.F.);
#98=ORIENTED_EDGE('',*,*,#152,.T.);
#99=ORIENTED_EDGE('',*,*,#153,.F.);
#100=ORIENTED_EDGE('',*,*,#154,.T.);
#101=ORIENTED_EDGE('',*,*,#155,.T.);
#102=ORIENTED_EDGE('',*,*,#156,.F.);
#103=ORIENTED_EDGE('',*,*,#157,.F.);
#104=ORIENTED_EDGE('',*,*,#158,.F.);
#105=ORIENTED_EDGE('',*,*,#159,.T.);
#106=ORIENTED_EDGE('',*,*,#146,.T.);
#107=ORIENTED_EDGE('',*,*,#150,.T.);
#108=ORIENTED_EDGE('',*,*,#155,.F.);
#109=ORIENTED_EDGE('',*,*,#159,.F.);
#110=ORIENTED_EDGE('',*,*,#160,.F.);
#111=ORIENTED_EDGE('',*,*,#161,.F.);
#112=ORIENTED_EDGE('',*,*,#147,.F.);
#113=ORIENTED_EDGE('',*,*,#151,.F.);
#114=ORIENTED_EDGE('',*,*,#148,.T.);
#115=ORIENTED_EDGE('',*,*,#161,.T.);
#116=ORIENTED_EDGE('',*,*,#162,.F.);
#117=ORIENTED_EDGE('',*,*,#163,.T.);
#118=ORIENTED_EDGE('',*,*,#164,.F.);
#119=ORIENTED_EDGE('',*,*,#153,.T.);
#120=ORIENTED_EDGE('',*,*,#156,.T.);
#121=ORIENTED_EDGE('',*,*,#154,.F.);
#122=ORIENTED_EDGE('',*,*,#164,.T.);
#123=ORIENTED_EDGE('',*,*,#165,.F.);
#124=ORIENTED_EDGE('',*,*,#157,.T.);
#125=ORIENTED_EDGE('',*,*,#165,.T.);
#126=ORIENTED_EDGE('',*,*,#163,.F.);
#127=ORIENTED_EDGE('',*,*,#166,.T.);
#128=ORIENTED_EDGE('',*,*,#158,.T.);
#129=ORIENTED_EDGE('',*,*,#166,.F.);
#130=ORIENTED_EDGE('',*,*,#162,.T.);
#131=ORIENTED_EDGE('',*,*,#160,.T.);
#132=VERTEX_POINT('',#270);
#133=VERTEX_POINT('',#271);
#134=VERTEX_POINT('',#273);
#135=VERTEX_POINT('',#284);
#136=VERTEX_POINT('',#288);
#137=VERTEX_POINT('',#290);
#138=VERTEX_POINT('',#294);
#139=VERTEX_POINT('',#296);
#140=VERTEX_POINT('',#305);
#141=VERTEX_POINT('',#307);
#142=VERTEX_POINT('',#316);
#143=VERTEX_POINT('',#325);
#144=VERTEX_POINT('',#341);
#145=VERTEX_POINT('',#343);
#146=EDGE_CURVE('',#132,#133,#167,.T.);
#147=EDGE_CURVE('',#132,#134,#83,.T.);
#148=EDGE_CURVE('',#135,#134,#168,.T.);
#149=EDGE_CURVE('',#135,#133,#84,.T.);
#150=EDGE_CURVE('',#133,#136,#40,.T.);
#151=EDGE_CURVE('',#135,#137,#41,.T.);
#152=EDGE_CURVE('',#136,#137,#85,.T.);
#153=EDGE_CURVE('',#138,#137,#42,.T.);
#154=EDGE_CURVE('',#138,#139,#86,.T.);
#155=EDGE_CURVE('',#139,#136,#43,.T.);
#156=EDGE_CURVE('',#140,#139,#169,.T.);
#157=EDGE_CURVE('',#141,#140,#44,.T.);
#158=EDGE_CURVE('',#142,#141,#170,.T.);
#159=EDGE_CURVE('',#142,#132,#171,.T.);
#160=EDGE_CURVE('',#143,#142,#87,.T.);
#161=EDGE_CURVE('',#134,#143,#172,.T.);
#162=EDGE_CURVE('',#144,#143,#173,.T.);
#163=EDGE_CURVE('',#144,#145,#45,.T.);
#164=EDGE_CURVE('',#138,#145,#174,.T.);
#165=EDGE_CURVE('',#140,#145,#88,.T.);
#166=EDGE_CURVE('',#144,#141,#89,.T.);
#167=B_SPLINE_CURVE_WITH_KNOTS('',3,(#260,#261,#262,#263,#264,#265,#266,
#267,#268,#269),.UNSPECIFIED.,.F.,.F.,(4,1,1,1,1,1,1,4),(0.,0.1428571428571,
0.2857142857143,0.4285714285714,0.5714285714286,0.7142857142857,0.8571428571429,
1.),.UNSPECIFIED.);
#168=B_SPLINE_CURVE_WITH_KNOTS('',3,(#274,#275,#276,#277,#278,#279,#280,
#281,#282,#283),.UNSPECIFIED.,.F.,.F.,(4,1,1,1,1,1,1,4),(0.,0.1428571428571,
0.2857142857143,0.4285714285714,0.5714285714286,0.7142857142857,0.8571428571429,
1.),.UNSPECIFIED.);
#169=B_SPLINE_CURVE_WITH_KNOTS('',3,(#299,#300,#301,#302,#303,#304),
 .UNSPECIFIED.,.F.,.F.,(4,1,1,4),(0.,0.3333333333333,0.6666666666667,1.),
 .UNSPECIFIED.);
#170=B_SPLINE_CURVE_WITH_KNOTS('',3,(#308,#309,#310,#311,#312,#313,#314,
#315),.UNSPECIFIED.,.F.,.F.,(4,1,1,1,1,4),(0.,0.2,0.4,0.6,0.8,1.),
 .UNSPECIFIED.);
#171=B_SPLINE_CURVE_WITH_KNOTS('',3,(#317,#318,#319,#320,#321,#322),
 .UNSPECIFIED.,.F.,.F.,(4,1,1,4),(0.,0.3333333333333,0.6666666666667,1.),
 .UNSPECIFIED.);
#172=B_SPLINE_CURVE_WITH_KNOTS('',3,(#326,#327,#328,#329,#330,#331),
 .UNSPECIFIED.,.F.,.F.,(4,1,1,4),(0.,0.3333333333333,0.6666666666667,1.),
 .UNSPECIFIED.);
#173=B_SPLINE_CURVE_WITH_KNOTS('',3,(#333,#334,#335,#336,#337,#338,#339,
#340),.UNSPECIFIED.,.F.,.F.,(4,1,1,1,1,4),(0.,0.2,0.4,0.6,0.8,1.),
 .UNSPECIFIED.);
#174=B_SPLINE_CURVE_WITH_KNOTS('',3,(#344,#345,#346,#347,#348,#349),
 .UNSPECIFIED.,.F.,.F.,(4,1,1,4),(0.,0.3333333333333,0.6666666666667,1.),
 .UNSPECIFIED.);
#175=COLOUR_RGB('Strong Stone',0.576470588235294,0.54508278019379,0.392156862745098);
#176=COLOUR_RGB('spare part',0.301960784313725,0.301960784313725,0.301960784313725);
#177=CURVE_STYLE('',#179,POSITIVE_LENGTH_MEASURE(0.13),#192);
#178=CURVE_STYLE('',#180,POSITIVE_LENGTH_MEASURE(0.13),#175);
#179=DRAUGHTING_PRE_DEFINED_CURVE_FONT('continuous');
#180=DRAUGHTING_PRE_DEFINED_CURVE_FONT('continuous');
#181=PRESENTATION_LAYER_ASSIGNMENT('1','Layer 1',(#257,#194,#195,#33));
#182=STYLED_ITEM('',(#186),#257);
#183=STYLED_ITEM('',(#187),#194);
#184=STYLED_ITEM('',(#188),#195);
#185=STYLED_ITEM('',(#189),#33);
#186=PRESENTATION_STYLE_ASSIGNMENT((#190));
#187=PRESENTATION_STYLE_ASSIGNMENT((#177));
#188=PRESENTATION_STYLE_ASSIGNMENT((#178));
#189=PRESENTATION_STYLE_ASSIGNMENT((#28));
#190=POINT_STYLE('',#191,POSITIVE_LENGTH_MEASURE(3.),#192);
#191=PRE_DEFINED_POINT_MARKER_SYMBOL('plus');
#192=DRAUGHTING_PRE_DEFINED_COLOUR('yellow');
#193=AXIS2_PLACEMENT_3D('',#256,#212,#213);
#194=AXIS2_PLACEMENT_3D('PCS',#258,#214,#215);
#195=AXIS2_PLACEMENT_3D('',#259,#216,#217);
#196=AXIS2_PLACEMENT_3D('',#272,#218,#219);
#197=AXIS2_PLACEMENT_3D('',#285,#220,#221);
#198=AXIS2_PLACEMENT_3D('',#286,#222,#223);
#199=AXIS2_PLACEMENT_3D('',#291,#226,#227);
#200=AXIS2_PLACEMENT_3D('',#292,#228,#229);
#201=AXIS2_PLACEMENT_3D('',#295,#231,#232);
#202=AXIS2_PLACEMENT_3D('',#298,#234,#235);
#203=AXIS2_PLACEMENT_3D('',#323,#237,#238);
#204=AXIS2_PLACEMENT_3D('',#324,#239,#240);
#205=AXIS2_PLACEMENT_3D('',#332,#241,#242);
#206=AXIS2_PLACEMENT_3D('',#350,#244,#245);
#207=AXIS2_PLACEMENT_3D('',#351,#246,#247);
#208=AXIS2_PLACEMENT_3D('',#352,#248,#249);
#209=AXIS2_PLACEMENT_3D('',#353,#250,#251);
#210=AXIS2_PLACEMENT_3D('',#354,#252,#253);
#211=AXIS2_PLACEMENT_3D('',#355,#254,#255);
#212=DIRECTION('',(0.,0.,1.));
#213=DIRECTION('',(1.,0.,0.));
#214=DIRECTION('',(0.,0.,1.));
#215=DIRECTION('',(1.,0.,0.));
#216=DIRECTION('',(0.,0.,1.));
#217=DIRECTION('',(1.,0.,0.));
#218=DIRECTION('',(0.,0.,-1.));
#219=DIRECTION('',(0.738791250871904,0.673934334809503,0.));
#220=DIRECTION('',(0.,0.,1.));
#221=DIRECTION('',(-0.27272727272729,0.962091385841664,0.));
#222=DIRECTION('',(0.,0.,-1.));
#223=DIRECTION('',(1.,0.,-5.07997062519199E-17));
#224=DIRECTION('',(0.,0.,1.));
#225=DIRECTION('',(0.,0.,1.));
#226=DIRECTION('',(0.,0.,-1.));
#227=DIRECTION('',(0.27272727272729,0.962091385841664,0.));
#228=DIRECTION('',(0.,0.,1.));
#229=DIRECTION('',(-1.,0.,0.));
#230=DIRECTION('',(0.906307787036659,-0.422618261740681,0.));
#231=DIRECTION('',(0.,0.,1.));
#232=DIRECTION('',(-0.42558184185478,0.904919938935757,0.));
#233=DIRECTION('',(-0.906307787036659,-0.422618261740681,0.));
#234=DIRECTION('',(0.,0.,1.));
#235=DIRECTION('',(-1.,0.,0.));
#236=DIRECTION('',(0.,0.,1.));
#237=DIRECTION('',(0.422618261740681,-0.906307787036659,0.));
#238=DIRECTION('',(0.906307787036659,0.422618261740681,0.));
#239=DIRECTION('',(0.,0.,1.));
#240=DIRECTION('',(-0.753468375734507,0.657484149442406,0.));
#241=DIRECTION('',(0.,0.,1.));
#242=DIRECTION('',(-1.,0.,6.39228677420719E-17));
#243=DIRECTION('',(0.,0.,1.));
#244=DIRECTION('',(-0.422618261740681,-0.906307787036659,0.));
#245=DIRECTION('',(0.906307787036659,-0.422618261740681,0.));
#246=DIRECTION('',(0.,0.,-1.));
#247=DIRECTION('',(0.47746431320601,0.878651142157519,0.));
#248=DIRECTION('',(0.,0.,-1.));
#249=DIRECTION('',(1.,0.,-1.45422291841091E-16));
#250=DIRECTION('',(0.,0.,1.));
#251=DIRECTION('',(-0.47746431320601,0.878651142157519,0.));
#252=DIRECTION('',(0.,0.,1.));
#253=DIRECTION('',(-1.,0.,0.));
#254=DIRECTION('',(0.,0.,-1.));
#255=DIRECTION('',(1.,0.,-4.70026713473888E-17));
#256=CARTESIAN_POINT('',(0.,0.,0.));
#257=CARTESIAN_POINT('',(0.,0.,0.));
#258=CARTESIAN_POINT('',(0.,0.,0.));
#259=CARTESIAN_POINT('',(0.,0.,0.));
#260=CARTESIAN_POINT('',(1.029826230802,0.9394199714815,0.));
#261=CARTESIAN_POINT('',(0.9742561670867,0.9135072252069,0.05851816630691));
#262=CARTESIAN_POINT('',(0.8674641457351,0.8637092878208,0.1702543113273));
#263=CARTESIAN_POINT('',(0.7206131428687,0.7952315405765,0.321331537804));
#264=CARTESIAN_POINT('',(0.5855848988859,0.7322668363401,0.4570258590038));
#265=CARTESIAN_POINT('',(0.4617193331621,0.6745073744614,0.5774314155953));
#266=CARTESIAN_POINT('',(0.3482652071567,0.6216028466558,0.6825536402245));
#267=CARTESIAN_POINT('',(0.2444099840933,0.5731743608019,0.772262003186));
#268=CARTESIAN_POINT('',(0.180586215409,0.5434128486921,0.821870376119));
#269=CARTESIAN_POINT('',(0.15,0.5291502622129,0.843933982822));
#270=CARTESIAN_POINT('',(1.029826230802,0.9394199714815,0.));
#271=CARTESIAN_POINT('',(0.15,0.5291502622129,0.843933982822));
#272=CARTESIAN_POINT('',(0.,0.,0.));
#273=CARTESIAN_POINT('',(-1.029826230802,0.9394199714815,0.));
#274=CARTESIAN_POINT('',(-0.15,0.5291502622129,0.843933982822));
#275=CARTESIAN_POINT('',(-0.180438501138,0.5433439683963,0.8219769309685));
#276=CARTESIAN_POINT('',(-0.2439968150742,0.5729816969242,0.7725927117677));
#277=CARTESIAN_POINT('',(-0.3474872009725,0.621240056414,0.6832471101082));
#278=CARTESIAN_POINT('',(-0.4606998664473,0.674031989325,0.5784002159689));
#279=CARTESIAN_POINT('',(-0.5845033808971,0.7317625162195,0.458098483584));
#280=CARTESIAN_POINT('',(-0.7197659258892,0.7948364768108,0.3221973085435));
#281=CARTESIAN_POINT('',(-0.8670203653987,0.8635023496514,0.1707177541388));
#282=CARTESIAN_POINT('',(-0.9740996741329,0.9134342513441,0.05868296152362));
#283=CARTESIAN_POINT('',(-1.029826230802,0.9394199714815,0.));
#284=CARTESIAN_POINT('',(-0.15,0.5291502622129,0.843933982822));
#285=CARTESIAN_POINT('',(0.,0.,0.843933982822));
#286=CARTESIAN_POINT('',(0.,0.,0.421966991411));
#287=CARTESIAN_POINT('',(0.15,0.5291502622129,0.843933982822));
#288=CARTESIAN_POINT('',(0.15,0.5291502622129,5.650431098568));
#289=CARTESIAN_POINT('',(-0.15,0.5291502622129,0.843933982822));
#290=CARTESIAN_POINT('',(-0.15,0.5291502622129,5.650431098568));
#291=CARTESIAN_POINT('',(0.,0.,5.650431098568));
#292=CARTESIAN_POINT('',(0.,0.,-0.2825215549284));
#293=CARTESIAN_POINT('',(-0.2766281972056,0.5881979603082,5.650431098568));
#294=CARTESIAN_POINT('',(-0.2766281972056,0.5881979603082,5.650431098568));
#295=CARTESIAN_POINT('',(0.,0.,5.650431098568));
#296=CARTESIAN_POINT('',(0.2766281972056,0.5881979603082,5.650431098568));
#297=CARTESIAN_POINT('',(0.2766281972056,0.5881979603082,5.650431098568));
#298=CARTESIAN_POINT('',(0.,0.,5.650431098568));
#299=CARTESIAN_POINT('',(0.3342250192442,0.6150557995103,5.500431098568));
#300=CARTESIAN_POINT('',(0.3277964443189,0.6120581057916,5.517541124932));
#301=CARTESIAN_POINT('',(0.3149636159301,0.6060740596381,5.551467938078));
#302=CARTESIAN_POINT('',(0.2957722087719,0.5971249595094,5.601473462026));
#303=CARTESIAN_POINT('',(0.283006841709,0.5911723710888,5.634212381873));
#304=CARTESIAN_POINT('',(0.2766281972056,0.5881979603082,5.650431098568));
#305=CARTESIAN_POINT('',(0.3342250192442,0.6150557995103,5.500431098568));
#306=CARTESIAN_POINT('',(0.3342250192442,0.6150557995103,0.906066017178));
#307=CARTESIAN_POINT('',(0.3342250192442,0.6150557995103,0.906066017178));
#308=CARTESIAN_POINT('',(1.130202563602,0.9862262241636,0.106066017178));
#309=CARTESIAN_POINT('',(1.064037983291,0.9553731736662,0.1762043276997));
#310=CARTESIAN_POINT('',(0.9372746212695,0.896262447182,0.309760813587));
#311=CARTESIAN_POINT('',(0.7641844892713,0.8155491930801,0.4891170526978));
#312=CARTESIAN_POINT('',(0.6061856387449,0.7418731191,0.6489260723457));
#313=CARTESIAN_POINT('',(0.4625706210662,0.6749043365303,0.7890477291793));
#314=CARTESIAN_POINT('',(0.3755904010403,0.6343447938243,0.8693672266831));
#315=CARTESIAN_POINT('',(0.3342250192442,0.6150557995103,0.906066017178));
#316=CARTESIAN_POINT('',(1.130202563602,0.9862262241636,0.106066017178));
#317=CARTESIAN_POINT('',(1.130202563602,0.9862262241636,0.106066017178));
#318=CARTESIAN_POINT('',(1.118862322645,0.9809381829603,0.09404470097139));
#319=CARTESIAN_POINT('',(1.096307168069,0.9704205416507,0.07015902253495));
#320=CARTESIAN_POINT('',(1.062849205828,0.9548188376311,0.03480299208852));
#321=CARTESIAN_POINT('',(1.040792594445,0.9445336708302,0.01154815108216));
#322=CARTESIAN_POINT('',(1.029826230802,0.9394199714815,0.));
#323=CARTESIAN_POINT('',(1.130202563602,0.9862262241636,0.));
#324=CARTESIAN_POINT('',(0.,0.,0.106066017178));
#325=CARTESIAN_POINT('',(-1.130202563602,0.9862262241636,0.106066017178));
#326=CARTESIAN_POINT('',(-1.029826230802,0.9394199714815,0.));
#327=CARTESIAN_POINT('',(-1.040790230465,0.9445325684883,0.01154566168841));
#328=CARTESIAN_POINT('',(-1.06284369464,0.9548162677222,0.03479717658267));
#329=CARTESIAN_POINT('',(-1.096301609791,0.9704179497829,0.07015314068861));
#330=CARTESIAN_POINT('',(-1.118859942242,0.98093707296,0.09404217760506));
#331=CARTESIAN_POINT('',(-1.130202563602,0.9862262241636,0.106066017178));
#332=CARTESIAN_POINT('',(0.,0.,0.05303300858899));
#333=CARTESIAN_POINT('',(-0.3342250192442,0.6150557995103,0.906066017178));
#334=CARTESIAN_POINT('',(-0.3752515597588,0.6341867895398,0.8696678419479));
#335=CARTESIAN_POINT('',(-0.4616981043227,0.674497475291,0.7898695126377));
#336=CARTESIAN_POINT('',(-0.6048307505735,0.7412413243697,0.6502732842089));
#337=CARTESIAN_POINT('',(-0.762816964205,0.814911505669,0.4905219774042));
#338=CARTESIAN_POINT('',(-0.9363574837867,0.8958347789501,0.310724211186));
#339=CARTESIAN_POINT('',(-1.063686107038,0.9552090910743,0.1765773370324));
#340=CARTESIAN_POINT('',(-1.130202563602,0.9862262241636,0.106066017178));
#341=CARTESIAN_POINT('',(-0.3342250192442,0.6150557995103,0.906066017178));
#342=CARTESIAN_POINT('',(-0.3342250192442,0.6150557995103,0.906066017178));
#343=CARTESIAN_POINT('',(-0.3342250192442,0.6150557995103,5.500431098568));
#344=CARTESIAN_POINT('',(-0.2766281972056,0.5881979603082,5.650431098568));
#345=CARTESIAN_POINT('',(-0.2830045777768,0.5911713153999,5.63421813828));
#346=CARTESIAN_POINT('',(-0.2957669936631,0.5971225276643,5.601486919776));
#347=CARTESIAN_POINT('',(-0.3149586530518,0.6060717454099,5.551480996776));
#348=CARTESIAN_POINT('',(-0.3277943388407,0.612057123991,5.517546728784));
#349=CARTESIAN_POINT('',(-0.3342250192442,0.6150557995103,5.500431098568));
#350=CARTESIAN_POINT('',(-0.15,0.5291502622129,0.));
#351=CARTESIAN_POINT('',(0.,0.,5.500431098568));
#352=CARTESIAN_POINT('',(0.,0.,5.575431098568));
#353=CARTESIAN_POINT('',(0.,0.,0.906066017178));
#354=CARTESIAN_POINT('',(0.,0.,-0.2825215549284));
#355=CARTESIAN_POINT('',(0.,0.,0.506066017178));
#356=MECHANICAL_DESIGN_GEOMETRIC_PRESENTATION_REPRESENTATION('',(#182,#183,
#184,#185),#357);
#357=(
GEOMETRIC_REPRESENTATION_CONTEXT(3)
GLOBAL_UNCERTAINTY_ASSIGNED_CONTEXT((#358))
GLOBAL_UNIT_ASSIGNED_CONTEXT((#364,#360,#359))
REPRESENTATION_CONTEXT('BCP141','TOP_LEVEL_ASSEMBLY_PART')
);
#358=UNCERTAINTY_MEASURE_WITH_UNIT(LENGTH_MEASURE(2.E-5),#364,
'DISTANCE_ACCURACY_VALUE','Maximum Tolerance applied to model');
#359=(
NAMED_UNIT(*)
SI_UNIT($,.STERADIAN.)
SOLID_ANGLE_UNIT()
);
#360=(
CONVERSION_BASED_UNIT('DEGREE',#362)
NAMED_UNIT(#361)
PLANE_ANGLE_UNIT()
);
#361=DIMENSIONAL_EXPONENTS(0.,0.,0.,0.,0.,0.,0.);
#362=PLANE_ANGLE_MEASURE_WITH_UNIT(PLANE_ANGLE_MEASURE(0.0174532925),#363);
#363=(
NAMED_UNIT(*)
PLANE_ANGLE_UNIT()
SI_UNIT($,.RADIAN.)
);
#364=(
LENGTH_UNIT()
NAMED_UNIT(*)
SI_UNIT(.MILLI.,.METRE.)
);
ENDSEC;
END-ISO-10303-21;
