ISO-10303-21;
HEADER;
/* Generated by software containing ST-Developer
 * from STEP Tools, Inc. (www.steptools.com) 
 */
/* OPTION: using custom schema-name function */

FILE_DESCRIPTION(
/* description */ (''),
/* implementation_level */ '2;1');

FILE_NAME(
/* name */ 'HGJ-PT1_8.stp',
/* time_stamp */ '2022-02-03T10:43:25+09:00',
/* author */ (''),
/* organization */ (''),
/* preprocessor_version */ 'ST-DEVELOPER v16',
/* originating_system */ 'SIEMENS PLM Software NX 10.0',
/* authorisation */ '');

FILE_SCHEMA (('AUTOMOTIVE_DESIGN { 1 0 10303 214 3 1 1 1 }'));
ENDSEC;

DATA;
#10=CONSTRUCTIVE_GEOMETRY_REPRESENTATION_RELATIONSHIP(
'supplemental geometry','',#26,#11);
#11=CONSTRUCTIVE_GEOMETRY_REPRESENTATION('supplemental geometry',(#308,
#309),#576);
#12=GEOMETRICALLY_BOUNDED_WIREFRAME_SHAPE_REPRESENTATION(
'HGJ-PT1_8-None',(#27),#576);
#13=SHAPE_REPRESENTATION_RELATIONSHIP('None',
'relationship between HGJ-PT1_8-None and HGJ-PT1_8-None',#26,#15);
#14=SHAPE_REPRESENTATION_RELATIONSHIP('None',
'relationship between HGJ-PT1_8-None and HGJ-PT1_8-None',#26,#12);
#15=ADVANCED_BREP_SHAPE_REPRESENTATION('HGJ-PT1_8-None',(#33),#576);
#16=SHAPE_DEFINITION_REPRESENTATION(#17,#26);
#17=PRODUCT_DEFINITION_SHAPE('','',#18);
#18=PRODUCT_DEFINITION('part definition','',#20,#19);
#19=PRODUCT_DEFINITION_CONTEXT('part definition',#25,'design');
#20=PRODUCT_DEFINITION_FORMATION_WITH_SPECIFIED_SOURCE(' ',' ',#22,
 .NOT_KNOWN.);
#21=PRODUCT_RELATED_PRODUCT_CATEGORY('part','',(#22));
#22=PRODUCT('HGJ-PT1_8','HGJ-PT1_8','NOT SPECIFIED',(#23));
#23=PRODUCT_CONTEXT('',#25,'mechanical');
#24=APPLICATION_PROTOCOL_DEFINITION('international standard',
'automotive_design',2010,#25);
#25=APPLICATION_CONTEXT(
'core data for automotive mechanical design processes');
#26=SHAPE_REPRESENTATION('HGJ-PT1_8-None',(#307),#576);
#27=GEOMETRIC_CURVE_SET('None',(#409));
#28=SURFACE_STYLE_USAGE(.BOTH.,#29);
#29=SURFACE_SIDE_STYLE('',(#30));
#30=SURFACE_STYLE_FILL_AREA(#31);
#31=FILL_AREA_STYLE('',(#32));
#32=FILL_AREA_STYLE_COLOUR('',#289);
#33=MANIFOLD_SOLID_BREP('',#34);
#34=CLOSED_SHELL('',(#93,#94,#95,#96,#97,#98,#99,#100,#101,#102,#103,#104,
#105,#106,#107,#108));
#35=B_SPLINE_CURVE_WITH_KNOTS('',3,(#456,#457,#458,#459,#460,#461,#462,
#463,#464,#465,#466,#467,#468,#469,#470),.UNSPECIFIED.,.F.,.F.,(4,1,1,1,
1,1,1,1,1,1,1,1,4),(0.,0.08333333333333,0.1666666666667,0.25,0.3333333333333,
0.4166666666667,0.5,0.5833333333333,0.6666666666667,0.75,0.8333333333333,
0.9166666666667,1.),.UNSPECIFIED.);
#36=B_SPLINE_CURVE_WITH_KNOTS('',3,(#474,#475,#476,#477,#478,#479,#480,
#481,#482),.UNSPECIFIED.,.F.,.F.,(4,1,1,1,1,1,4),(0.,0.1666666666667,0.3333333333333,
0.5,0.6666666666667,0.8333333333333,1.),.UNSPECIFIED.);
#37=B_SPLINE_CURVE_WITH_KNOTS('',3,(#484,#485,#486,#487,#488,#489,#490,
#491,#492),.UNSPECIFIED.,.F.,.F.,(4,1,1,1,1,1,4),(0.,0.1666666666667,0.3333333333333,
0.5,0.6666666666667,0.8333333333333,1.),.UNSPECIFIED.);
#38=B_SPLINE_CURVE_WITH_KNOTS('',3,(#496,#497,#498,#499,#500,#501,#502,
#503,#504,#505,#506,#507,#508,#509,#510),.UNSPECIFIED.,.F.,.F.,(4,1,1,1,
1,1,1,1,1,1,1,1,4),(0.,0.08333333333333,0.1666666666667,0.25,0.3333333333333,
0.4166666666667,0.5,0.5833333333333,0.6666666666667,0.75,0.8333333333333,
0.9166666666667,1.),.UNSPECIFIED.);
#39=B_SPLINE_CURVE_WITH_KNOTS('',3,(#514,#515,#516,#517,#518,#519,#520,
#521,#522,#523,#524,#525,#526,#527,#528),.UNSPECIFIED.,.F.,.F.,(4,1,1,1,
1,1,1,1,1,1,1,1,4),(0.,0.08333333333333,0.1666666666667,0.25,0.3333333333333,
0.4166666666667,0.5,0.5833333333333,0.6666666666667,0.75,0.8333333333333,
0.9166666666667,1.),.UNSPECIFIED.);
#40=B_SPLINE_CURVE_WITH_KNOTS('',3,(#532,#533,#534,#535,#536,#537,#538,
#539,#540),.UNSPECIFIED.,.F.,.F.,(4,1,1,1,1,1,4),(0.,0.1666666666667,0.3333333333333,
0.5,0.6666666666667,0.8333333333333,1.),.UNSPECIFIED.);
#41=B_SPLINE_CURVE_WITH_KNOTS('',3,(#542,#543,#544,#545,#546,#547,#548,
#549,#550),.UNSPECIFIED.,.F.,.F.,(4,1,1,1,1,1,4),(0.,0.1666666666667,0.3333333333333,
0.5,0.6666666666667,0.8333333333333,1.),.UNSPECIFIED.);
#42=B_SPLINE_CURVE_WITH_KNOTS('',3,(#554,#555,#556,#557,#558,#559,#560,
#561,#562,#563,#564,#565,#566,#567,#568),.UNSPECIFIED.,.F.,.F.,(4,1,1,1,
1,1,1,1,1,1,1,1,4),(0.,0.08333333333333,0.1666666666667,0.25,0.3333333333333,
0.4166666666667,0.5,0.5833333333333,0.6666666666667,0.75,0.8333333333333,
0.9166666666667,1.),.UNSPECIFIED.);
#43=FACE_BOUND('',#139,.T.);
#44=FACE_BOUND('',#140,.T.);
#45=CONICAL_SURFACE('',#314,4.2711875,45.);
#46=CONICAL_SURFACE('',#316,4.2711875,45.);
#47=CONICAL_SURFACE('',#318,4.876160984848,1.789910608246);
#48=CONICAL_SURFACE('',#320,4.876160984848,1.789910608246);
#49=CONICAL_SURFACE('',#322,4.840285984848,45.);
#50=CONICAL_SURFACE('',#324,4.840285984848,45.);
#51=CONICAL_SURFACE('',#332,1.472243186434,70.);
#52=CONICAL_SURFACE('',#333,1.472243186434,70.);
#53=LINE('',#417,#73);
#54=LINE('',#421,#74);
#55=LINE('',#428,#75);
#56=LINE('',#429,#76);
#57=LINE('',#433,#77);
#58=LINE('',#437,#78);
#59=LINE('',#441,#79);
#60=LINE('',#444,#80);
#61=LINE('',#446,#81);
#62=LINE('',#448,#82);
#63=LINE('',#450,#83);
#64=LINE('',#452,#84);
#65=LINE('',#454,#85);
#66=LINE('',#472,#86);
#67=LINE('',#494,#87);
#68=LINE('',#512,#88);
#69=LINE('',#530,#89);
#70=LINE('',#552,#90);
#71=LINE('',#570,#91);
#72=LINE('',#572,#92);
#73=VECTOR('',#346,1.);
#74=VECTOR('',#349,1.);
#75=VECTOR('',#358,1.);
#76=VECTOR('',#359,1.);
#77=VECTOR('',#366,1.);
#78=VECTOR('',#369,1.);
#79=VECTOR('',#376,1.);
#80=VECTOR('',#377,1.);
#81=VECTOR('',#378,1.);
#82=VECTOR('',#379,1.);
#83=VECTOR('',#380,1.);
#84=VECTOR('',#381,1.);
#85=VECTOR('',#384,1.);
#86=VECTOR('',#385,1.);
#87=VECTOR('',#388,1.);
#88=VECTOR('',#391,1.);
#89=VECTOR('',#394,1.);
#90=VECTOR('',#397,1.);
#91=VECTOR('',#402,1.);
#92=VECTOR('',#403,1.);
#93=ADVANCED_FACE('',(#117),#109,.T.);
#94=ADVANCED_FACE('',(#118),#45,.T.);
#95=ADVANCED_FACE('',(#119),#46,.T.);
#96=ADVANCED_FACE('',(#120),#47,.T.);
#97=ADVANCED_FACE('',(#121),#48,.T.);
#98=ADVANCED_FACE('',(#122),#49,.T.);
#99=ADVANCED_FACE('',(#123),#50,.T.);
#100=ADVANCED_FACE('',(#43,#44),#110,.F.);
#101=ADVANCED_FACE('',(#124),#111,.F.);
#102=ADVANCED_FACE('',(#125),#112,.F.);
#103=ADVANCED_FACE('',(#126),#113,.F.);
#104=ADVANCED_FACE('',(#127),#114,.F.);
#105=ADVANCED_FACE('',(#128),#115,.F.);
#106=ADVANCED_FACE('',(#129),#116,.F.);
#107=ADVANCED_FACE('',(#130),#51,.F.);
#108=ADVANCED_FACE('',(#131),#52,.F.);
#109=PLANE('',#312);
#110=PLANE('',#325);
#111=PLANE('',#326);
#112=PLANE('',#327);
#113=PLANE('',#328);
#114=PLANE('',#329);
#115=PLANE('',#330);
#116=PLANE('',#331);
#117=FACE_OUTER_BOUND('',#132,.T.);
#118=FACE_OUTER_BOUND('',#133,.T.);
#119=FACE_OUTER_BOUND('',#134,.T.);
#120=FACE_OUTER_BOUND('',#135,.T.);
#121=FACE_OUTER_BOUND('',#136,.T.);
#122=FACE_OUTER_BOUND('',#137,.T.);
#123=FACE_OUTER_BOUND('',#138,.T.);
#124=FACE_OUTER_BOUND('',#141,.T.);
#125=FACE_OUTER_BOUND('',#142,.T.);
#126=FACE_OUTER_BOUND('',#143,.T.);
#127=FACE_OUTER_BOUND('',#144,.T.);
#128=FACE_OUTER_BOUND('',#145,.T.);
#129=FACE_OUTER_BOUND('',#146,.T.);
#130=FACE_OUTER_BOUND('',#147,.T.);
#131=FACE_OUTER_BOUND('',#148,.T.);
#132=EDGE_LOOP('',(#149,#150));
#133=EDGE_LOOP('',(#151,#152,#153,#154));
#134=EDGE_LOOP('',(#155,#156,#157,#158));
#135=EDGE_LOOP('',(#159,#160,#161,#162));
#136=EDGE_LOOP('',(#163,#164,#165,#166));
#137=EDGE_LOOP('',(#167,#168,#169,#170));
#138=EDGE_LOOP('',(#171,#172,#173,#174));
#139=EDGE_LOOP('',(#175,#176));
#140=EDGE_LOOP('',(#177,#178,#179,#180,#181,#182));
#141=EDGE_LOOP('',(#183,#184,#185,#186));
#142=EDGE_LOOP('',(#187,#188,#189,#190,#191));
#143=EDGE_LOOP('',(#192,#193,#194,#195));
#144=EDGE_LOOP('',(#196,#197,#198,#199));
#145=EDGE_LOOP('',(#200,#201,#202,#203,#204));
#146=EDGE_LOOP('',(#205,#206,#207,#208));
#147=EDGE_LOOP('',(#209,#210,#211,#212,#213,#214));
#148=EDGE_LOOP('',(#215,#216,#217,#218,#219,#220));
#149=ORIENTED_EDGE('',*,*,#244,.T.);
#150=ORIENTED_EDGE('',*,*,#245,.F.);
#151=ORIENTED_EDGE('',*,*,#245,.T.);
#152=ORIENTED_EDGE('',*,*,#246,.F.);
#153=ORIENTED_EDGE('',*,*,#247,.F.);
#154=ORIENTED_EDGE('',*,*,#248,.T.);
#155=ORIENTED_EDGE('',*,*,#249,.T.);
#156=ORIENTED_EDGE('',*,*,#246,.T.);
#157=ORIENTED_EDGE('',*,*,#244,.F.);
#158=ORIENTED_EDGE('',*,*,#248,.F.);
#159=ORIENTED_EDGE('',*,*,#250,.T.);
#160=ORIENTED_EDGE('',*,*,#251,.F.);
#161=ORIENTED_EDGE('',*,*,#249,.F.);
#162=ORIENTED_EDGE('',*,*,#252,.T.);
#163=ORIENTED_EDGE('',*,*,#247,.T.);
#164=ORIENTED_EDGE('',*,*,#251,.T.);
#165=ORIENTED_EDGE('',*,*,#253,.F.);
#166=ORIENTED_EDGE('',*,*,#252,.F.);
#167=ORIENTED_EDGE('',*,*,#253,.T.);
#168=ORIENTED_EDGE('',*,*,#254,.F.);
#169=ORIENTED_EDGE('',*,*,#255,.F.);
#170=ORIENTED_EDGE('',*,*,#256,.T.);
#171=ORIENTED_EDGE('',*,*,#257,.T.);
#172=ORIENTED_EDGE('',*,*,#254,.T.);
#173=ORIENTED_EDGE('',*,*,#250,.F.);
#174=ORIENTED_EDGE('',*,*,#256,.F.);
#175=ORIENTED_EDGE('',*,*,#257,.F.);
#176=ORIENTED_EDGE('',*,*,#255,.T.);
#177=ORIENTED_EDGE('',*,*,#258,.F.);
#178=ORIENTED_EDGE('',*,*,#259,.F.);
#179=ORIENTED_EDGE('',*,*,#260,.F.);
#180=ORIENTED_EDGE('',*,*,#261,.F.);
#181=ORIENTED_EDGE('',*,*,#262,.F.);
#182=ORIENTED_EDGE('',*,*,#263,.F.);
#183=ORIENTED_EDGE('',*,*,#264,.T.);
#184=ORIENTED_EDGE('',*,*,#265,.F.);
#185=ORIENTED_EDGE('',*,*,#266,.F.);
#186=ORIENTED_EDGE('',*,*,#263,.T.);
#187=ORIENTED_EDGE('',*,*,#266,.T.);
#188=ORIENTED_EDGE('',*,*,#267,.T.);
#189=ORIENTED_EDGE('',*,*,#268,.T.);
#190=ORIENTED_EDGE('',*,*,#269,.F.);
#191=ORIENTED_EDGE('',*,*,#258,.T.);
#192=ORIENTED_EDGE('',*,*,#269,.T.);
#193=ORIENTED_EDGE('',*,*,#270,.F.);
#194=ORIENTED_EDGE('',*,*,#271,.F.);
#195=ORIENTED_EDGE('',*,*,#259,.T.);
#196=ORIENTED_EDGE('',*,*,#271,.T.);
#197=ORIENTED_EDGE('',*,*,#272,.F.);
#198=ORIENTED_EDGE('',*,*,#273,.F.);
#199=ORIENTED_EDGE('',*,*,#260,.T.);
#200=ORIENTED_EDGE('',*,*,#273,.T.);
#201=ORIENTED_EDGE('',*,*,#274,.T.);
#202=ORIENTED_EDGE('',*,*,#275,.T.);
#203=ORIENTED_EDGE('',*,*,#276,.F.);
#204=ORIENTED_EDGE('',*,*,#261,.T.);
#205=ORIENTED_EDGE('',*,*,#276,.T.);
#206=ORIENTED_EDGE('',*,*,#277,.F.);
#207=ORIENTED_EDGE('',*,*,#264,.F.);
#208=ORIENTED_EDGE('',*,*,#262,.T.);
#209=ORIENTED_EDGE('',*,*,#277,.T.);
#210=ORIENTED_EDGE('',*,*,#275,.F.);
#211=ORIENTED_EDGE('',*,*,#278,.F.);
#212=ORIENTED_EDGE('',*,*,#279,.T.);
#213=ORIENTED_EDGE('',*,*,#267,.F.);
#214=ORIENTED_EDGE('',*,*,#265,.T.);
#215=ORIENTED_EDGE('',*,*,#279,.F.);
#216=ORIENTED_EDGE('',*,*,#278,.T.);
#217=ORIENTED_EDGE('',*,*,#274,.F.);
#218=ORIENTED_EDGE('',*,*,#272,.T.);
#219=ORIENTED_EDGE('',*,*,#270,.T.);
#220=ORIENTED_EDGE('',*,*,#268,.F.);
#221=VERTEX_POINT('',#413);
#222=VERTEX_POINT('',#414);
#223=VERTEX_POINT('',#418);
#224=VERTEX_POINT('',#420);
#225=VERTEX_POINT('',#426);
#226=VERTEX_POINT('',#427);
#227=VERTEX_POINT('',#434);
#228=VERTEX_POINT('',#436);
#229=VERTEX_POINT('',#442);
#230=VERTEX_POINT('',#443);
#231=VERTEX_POINT('',#445);
#232=VERTEX_POINT('',#447);
#233=VERTEX_POINT('',#449);
#234=VERTEX_POINT('',#451);
#235=VERTEX_POINT('',#455);
#236=VERTEX_POINT('',#471);
#237=VERTEX_POINT('',#483);
#238=VERTEX_POINT('',#493);
#239=VERTEX_POINT('',#511);
#240=VERTEX_POINT('',#529);
#241=VERTEX_POINT('',#541);
#242=VERTEX_POINT('',#551);
#243=VERTEX_POINT('',#571);
#244=EDGE_CURVE('',#221,#222,#280,.T.);
#245=EDGE_CURVE('',#221,#222,#281,.T.);
#246=EDGE_CURVE('',#223,#222,#53,.T.);
#247=EDGE_CURVE('',#224,#223,#282,.T.);
#248=EDGE_CURVE('',#224,#221,#54,.T.);
#249=EDGE_CURVE('',#224,#223,#283,.T.);
#250=EDGE_CURVE('',#225,#226,#284,.T.);
#251=EDGE_CURVE('',#223,#226,#55,.T.);
#252=EDGE_CURVE('',#224,#225,#56,.T.);
#253=EDGE_CURVE('',#225,#226,#285,.T.);
#254=EDGE_CURVE('',#227,#226,#57,.T.);
#255=EDGE_CURVE('',#228,#227,#286,.T.);
#256=EDGE_CURVE('',#228,#225,#58,.T.);
#257=EDGE_CURVE('',#228,#227,#287,.T.);
#258=EDGE_CURVE('',#229,#230,#59,.T.);
#259=EDGE_CURVE('',#231,#229,#60,.T.);
#260=EDGE_CURVE('',#232,#231,#61,.T.);
#261=EDGE_CURVE('',#233,#232,#62,.T.);
#262=EDGE_CURVE('',#234,#233,#63,.T.);
#263=EDGE_CURVE('',#230,#234,#64,.T.);
#264=EDGE_CURVE('',#234,#235,#65,.T.);
#265=EDGE_CURVE('',#236,#235,#35,.T.);
#266=EDGE_CURVE('',#230,#236,#66,.T.);
#267=EDGE_CURVE('',#236,#237,#36,.T.);
#268=EDGE_CURVE('',#237,#238,#37,.T.);
#269=EDGE_CURVE('',#229,#238,#67,.T.);
#270=EDGE_CURVE('',#239,#238,#38,.T.);
#271=EDGE_CURVE('',#231,#239,#68,.T.);
#272=EDGE_CURVE('',#240,#239,#39,.T.);
#273=EDGE_CURVE('',#232,#240,#69,.T.);
#274=EDGE_CURVE('',#240,#241,#40,.T.);
#275=EDGE_CURVE('',#241,#242,#41,.T.);
#276=EDGE_CURVE('',#233,#242,#70,.T.);
#277=EDGE_CURVE('',#235,#242,#42,.T.);
#278=EDGE_CURVE('',#243,#241,#71,.T.);
#279=EDGE_CURVE('',#243,#237,#72,.T.);
#280=CIRCLE('',#310,3.7711875);
#281=CIRCLE('',#311,3.7711875);
#282=CIRCLE('',#313,4.7711875);
#283=CIRCLE('',#315,4.7711875);
#284=CIRCLE('',#317,4.981134469697);
#285=CIRCLE('',#319,4.981134469697);
#286=CIRCLE('',#321,4.6994375);
#287=CIRCLE('',#323,4.6994375);
#288=COLOUR_RGB('Strong Stone',0.576470588235294,0.54508278019379,0.392156862745098);
#289=COLOUR_RGB('spare part',0.301960784313725,0.301960784313725,0.301960784313725);
#290=CURVE_STYLE('',#292,POSITIVE_LENGTH_MEASURE(0.13),#306);
#291=CURVE_STYLE('',#293,POSITIVE_LENGTH_MEASURE(0.13),#288);
#292=DRAUGHTING_PRE_DEFINED_CURVE_FONT('continuous');
#293=DRAUGHTING_PRE_DEFINED_CURVE_FONT('continuous');
#294=PRESENTATION_LAYER_ASSIGNMENT('5','Layer 5',(#409,#308));
#295=PRESENTATION_LAYER_ASSIGNMENT('1','Layer 1',(#309,#33));
#296=STYLED_ITEM('',(#300),#409);
#297=STYLED_ITEM('',(#301),#308);
#298=STYLED_ITEM('',(#302),#309);
#299=STYLED_ITEM('',(#303),#33);
#300=PRESENTATION_STYLE_ASSIGNMENT((#304));
#301=PRESENTATION_STYLE_ASSIGNMENT((#290));
#302=PRESENTATION_STYLE_ASSIGNMENT((#291));
#303=PRESENTATION_STYLE_ASSIGNMENT((#28));
#304=POINT_STYLE('',#305,POSITIVE_LENGTH_MEASURE(3.),#306);
#305=PRE_DEFINED_POINT_MARKER_SYMBOL('plus');
#306=DRAUGHTING_PRE_DEFINED_COLOUR('yellow');
#307=AXIS2_PLACEMENT_3D('',#408,#334,#335);
#308=AXIS2_PLACEMENT_3D('PCS',#410,#336,#337);
#309=AXIS2_PLACEMENT_3D('',#411,#338,#339);
#310=AXIS2_PLACEMENT_3D('',#412,#340,#341);
#311=AXIS2_PLACEMENT_3D('',#415,#342,#343);
#312=AXIS2_PLACEMENT_3D('',#416,#344,#345);
#313=AXIS2_PLACEMENT_3D('',#419,#347,#348);
#314=AXIS2_PLACEMENT_3D('',#422,#350,#351);
#315=AXIS2_PLACEMENT_3D('',#423,#352,#353);
#316=AXIS2_PLACEMENT_3D('',#424,#354,#355);
#317=AXIS2_PLACEMENT_3D('',#425,#356,#357);
#318=AXIS2_PLACEMENT_3D('',#430,#360,#361);
#319=AXIS2_PLACEMENT_3D('',#431,#362,#363);
#320=AXIS2_PLACEMENT_3D('',#432,#364,#365);
#321=AXIS2_PLACEMENT_3D('',#435,#367,#368);
#322=AXIS2_PLACEMENT_3D('',#438,#370,#371);
#323=AXIS2_PLACEMENT_3D('',#439,#372,#373);
#324=AXIS2_PLACEMENT_3D('',#440,#374,#375);
#325=AXIS2_PLACEMENT_3D('',#453,#382,#383);
#326=AXIS2_PLACEMENT_3D('',#473,#386,#387);
#327=AXIS2_PLACEMENT_3D('',#495,#389,#390);
#328=AXIS2_PLACEMENT_3D('',#513,#392,#393);
#329=AXIS2_PLACEMENT_3D('',#531,#395,#396);
#330=AXIS2_PLACEMENT_3D('',#553,#398,#399);
#331=AXIS2_PLACEMENT_3D('',#569,#400,#401);
#332=AXIS2_PLACEMENT_3D('',#573,#404,#405);
#333=AXIS2_PLACEMENT_3D('',#574,#406,#407);
#334=DIRECTION('',(0.,0.,1.));
#335=DIRECTION('',(1.,0.,0.));
#336=DIRECTION('',(0.,0.,1.));
#337=DIRECTION('',(1.,0.,0.));
#338=DIRECTION('',(0.,0.,1.));
#339=DIRECTION('',(1.,0.,0.));
#340=DIRECTION('',(0.,0.,1.));
#341=DIRECTION('',(0.,-1.,0.));
#342=DIRECTION('',(0.,0.,-1.));
#343=DIRECTION('',(0.,-1.,0.));
#344=DIRECTION('',(0.,0.,1.));
#345=DIRECTION('',(0.,-1.,0.));
#346=DIRECTION('',(0.,-0.707106781186547,0.707106781186547));
#347=DIRECTION('',(0.,0.,-1.));
#348=DIRECTION('',(0.,-1.,0.));
#349=DIRECTION('',(0.,0.707106781186547,0.707106781186547));
#350=DIRECTION('',(0.,0.,-1.));
#351=DIRECTION('',(0.,1.,-4.83656784461424E-17));
#352=DIRECTION('',(0.,0.,1.));
#353=DIRECTION('',(0.,-1.,0.));
#354=DIRECTION('',(0.,0.,-1.));
#355=DIRECTION('',(0.,1.,-4.83656784461424E-17));
#356=DIRECTION('',(0.,0.,1.));
#357=DIRECTION('',(0.,-1.,0.));
#358=DIRECTION('',(0.,0.0312347523777193,-0.999512076087079));
#359=DIRECTION('',(0.,-0.0312347523777193,-0.999512076087079));
#360=DIRECTION('',(0.,0.,-1.));
#361=DIRECTION('',(0.,1.,6.84263394138068E-16));
#362=DIRECTION('',(0.,0.,-1.));
#363=DIRECTION('',(0.,-1.,0.));
#364=DIRECTION('',(0.,0.,-1.));
#365=DIRECTION('',(0.,1.,6.84263394138068E-16));
#366=DIRECTION('',(0.,0.707106781186498,0.707106781186598));
#367=DIRECTION('',(0.,0.,-1.));
#368=DIRECTION('',(0.,-1.,0.));
#369=DIRECTION('',(0.,-0.707106781186498,0.707106781186598));
#370=DIRECTION('',(0.,0.,1.));
#371=DIRECTION('',(0.,-1.,-8.91776641579418E-17));
#372=DIRECTION('',(0.,0.,1.));
#373=DIRECTION('',(0.,-1.,0.));
#374=DIRECTION('',(0.,0.,1.));
#375=DIRECTION('',(0.,-1.,-8.91776641579418E-17));
#376=DIRECTION('',(-1.,0.,0.));
#377=DIRECTION('',(-0.500000000000017,-0.866025403784429,0.));
#378=DIRECTION('',(0.500000000000017,-0.866025403784429,0.));
#379=DIRECTION('',(1.,0.,0.));
#380=DIRECTION('',(0.500000000000017,0.866025403784429,0.));
#381=DIRECTION('',(-0.500000000000017,0.866025403784429,0.));
#382=DIRECTION('',(0.,0.,1.));
#383=DIRECTION('',(0.,-1.,0.));
#384=DIRECTION('',(0.,0.,1.));
#385=DIRECTION('',(0.,0.,1.));
#386=DIRECTION('',(-0.866025403784429,-0.500000000000017,0.));
#387=DIRECTION('',(0.500000000000017,-0.866025403784429,0.));
#388=DIRECTION('',(0.,0.,1.));
#389=DIRECTION('',(0.,-1.,0.));
#390=DIRECTION('',(1.,0.,0.));
#391=DIRECTION('',(0.,0.,1.));
#392=DIRECTION('',(0.866025403784429,-0.500000000000017,0.));
#393=DIRECTION('',(0.500000000000017,0.866025403784429,0.));
#394=DIRECTION('',(0.,0.,1.));
#395=DIRECTION('',(0.866025403784429,0.500000000000017,0.));
#396=DIRECTION('',(-0.500000000000017,0.866025403784429,0.));
#397=DIRECTION('',(0.,0.,1.));
#398=DIRECTION('',(0.,1.,0.));
#399=DIRECTION('',(-1.,0.,0.));
#400=DIRECTION('',(-0.866025403784429,0.500000000000017,0.));
#401=DIRECTION('',(-0.500000000000017,-0.866025403784429,0.));
#402=DIRECTION('',(-5.8079975486588E-10,0.939692622186568,-0.342020139477388));
#403=DIRECTION('',(5.8158219561613E-10,-0.939692622187249,-0.342020139475518));
#404=DIRECTION('',(0.,0.,-1.));
#405=DIRECTION('',(0.,1.,6.62602038345685E-18));
#406=DIRECTION('',(0.,0.,-1.));
#407=DIRECTION('',(0.,1.,6.62602038345685E-18));
#408=CARTESIAN_POINT('',(0.,0.,0.));
#409=CARTESIAN_POINT('',(0.,0.,0.));
#410=CARTESIAN_POINT('',(0.,0.,0.));
#411=CARTESIAN_POINT('',(0.,0.,0.));
#412=CARTESIAN_POINT('',(0.,0.,8.));
#413=CARTESIAN_POINT('',(0.,-3.7711875,8.));
#414=CARTESIAN_POINT('',(0.,3.7711875,8.));
#415=CARTESIAN_POINT('',(0.,0.,8.));
#416=CARTESIAN_POINT('',(0.,0.,8.));
#417=CARTESIAN_POINT('',(0.,3.7711875,8.));
#418=CARTESIAN_POINT('',(0.,4.7711875,7.));
#419=CARTESIAN_POINT('',(0.,0.,7.));
#420=CARTESIAN_POINT('',(0.,-4.7711875,7.));
#421=CARTESIAN_POINT('',(0.,-3.7711875,8.));
#422=CARTESIAN_POINT('',(0.,0.,7.5));
#423=CARTESIAN_POINT('',(0.,0.,7.));
#424=CARTESIAN_POINT('',(0.,0.,7.5));
#425=CARTESIAN_POINT('',(0.,0.,0.281696969697));
#426=CARTESIAN_POINT('',(0.,-4.981134469697,0.281696969697));
#427=CARTESIAN_POINT('',(0.,4.981134469697,0.281696969697));
#428=CARTESIAN_POINT('',(0.,4.7711875,7.));
#429=CARTESIAN_POINT('',(0.,-4.7711875,7.));
#430=CARTESIAN_POINT('',(0.,0.,3.640848484848));
#431=CARTESIAN_POINT('',(0.,0.,0.281696969697));
#432=CARTESIAN_POINT('',(0.,0.,3.640848484848));
#433=CARTESIAN_POINT('',(0.,4.981134469697,0.281696969697));
#434=CARTESIAN_POINT('',(0.,4.6994375,0.));
#435=CARTESIAN_POINT('',(0.,0.,0.));
#436=CARTESIAN_POINT('',(0.,-4.6994375,0.));
#437=CARTESIAN_POINT('',(0.,-4.981134469697,0.281696969697));
#438=CARTESIAN_POINT('',(0.,0.,0.1408484848485));
#439=CARTESIAN_POINT('',(0.,0.,0.));
#440=CARTESIAN_POINT('',(0.,0.,0.1408484848485));
#441=CARTESIAN_POINT('',(1.443375672974,-2.5,0.));
#442=CARTESIAN_POINT('',(1.443375672974,-2.5,0.));
#443=CARTESIAN_POINT('',(-1.443375672974,-2.5,0.));
#444=CARTESIAN_POINT('',(2.886751345948,0.,0.));
#445=CARTESIAN_POINT('',(2.886751345948,0.,0.));
#446=CARTESIAN_POINT('',(1.443375672974,2.5,0.));
#447=CARTESIAN_POINT('',(1.443375672974,2.5,0.));
#448=CARTESIAN_POINT('',(-1.443375672974,2.5,0.));
#449=CARTESIAN_POINT('',(-1.443375672974,2.5,0.));
#450=CARTESIAN_POINT('',(-2.886751345948,0.,0.));
#451=CARTESIAN_POINT('',(-2.886751345948,0.,0.));
#452=CARTESIAN_POINT('',(-1.443375672974,-2.5,0.));
#453=CARTESIAN_POINT('',(0.,0.,0.));
#454=CARTESIAN_POINT('',(-2.886751345948,0.,0.));
#455=CARTESIAN_POINT('',(-2.886751345948,0.,3.859234022012));
#456=CARTESIAN_POINT('',(-1.443375672974,-2.5,3.859234022012));
#457=CARTESIAN_POINT('',(-1.485152198642,-2.427640934979,3.874439433847));
#458=CARTESIAN_POINT('',(-1.567772013085,-2.284539218653,3.902517832171));
#459=CARTESIAN_POINT('',(-1.688122215019,-2.076086554201,3.937145573449));
#460=CARTESIAN_POINT('',(-1.807329617642,-1.86961327622,3.964693031458));
#461=CARTESIAN_POINT('',(-1.926260366225,-1.663619177092,3.984849324789));
#462=CARTESIAN_POINT('',(-2.04550634479,-1.457079083619,3.997216229408));
#463=CARTESIAN_POINT('',(-2.165063489006,-1.250000035429,4.001391884648));
#464=CARTESIAN_POINT('',(-2.284620637165,-1.04292098041,3.997216231998));
#465=CARTESIAN_POINT('',(-2.403866611596,-0.8363808940979,3.984849330355));
#466=CARTESIAN_POINT('',(-2.52279735879,-0.6303867973754,3.96469303991));
#467=CARTESIAN_POINT('',(-2.642004761078,-0.4239135199732,3.937145584932));
#468=CARTESIAN_POINT('',(-2.762354994377,-0.2154608011977,3.902517836257));
#469=CARTESIAN_POINT('',(-2.844974816712,-0.07235907120007,3.874439435145));
#470=CARTESIAN_POINT('',(-2.886751345948,0.,3.859234022012));
#471=CARTESIAN_POINT('',(-1.443375672974,-2.5,3.859234022012));
#472=CARTESIAN_POINT('',(-1.443375672974,-2.5,0.));
#473=CARTESIAN_POINT('',(-1.443375672974,-2.5,0.));
#474=CARTESIAN_POINT('',(-1.443375672974,-2.5,3.859234022012));
#475=CARTESIAN_POINT('',(-1.360562722874,-2.5,3.874304746437));
#476=CARTESIAN_POINT('',(-1.196529571324,-2.5,3.902198391078));
#477=CARTESIAN_POINT('',(-0.9568795566591,-2.5,3.936749575505));
#478=CARTESIAN_POINT('',(-0.7185348765876,-2.5,3.964386885692));
#479=CARTESIAN_POINT('',(-0.4800943156846,-2.5,3.984688416756));
#480=CARTESIAN_POINT('',(-0.2404624538516,-2.5,3.997182573842));
#481=CARTESIAN_POINT('',(-0.08024924097601,-2.5,4.0000000116));
#482=CARTESIAN_POINT('',(1.547267111298E-9,-2.5,4.0000000116));
#483=CARTESIAN_POINT('',(1.547267111298E-9,-2.5,4.0000000116));
#484=CARTESIAN_POINT('',(1.547267111298E-9,-2.5,4.0000000116));
#485=CARTESIAN_POINT('',(0.0804361414437,-2.5,4.0000000116));
#486=CARTESIAN_POINT('',(0.2409854478877,-2.5,3.997169815221));
#487=CARTESIAN_POINT('',(0.4810556883137,-2.5,3.984625950556));
#488=CARTESIAN_POINT('',(0.7197267456069,-2.5,3.964267633563));
#489=CARTESIAN_POINT('',(0.958055404225,-2.5,3.936594353759));
#490=CARTESIAN_POINT('',(1.197351462793,-2.5,3.902063971521));
#491=CARTESIAN_POINT('',(1.360878562182,-2.5,3.874247268383));
#492=CARTESIAN_POINT('',(1.443375672974,-2.5,3.859234022012));
#493=CARTESIAN_POINT('',(1.443375672974,-2.5,3.859234022012));
#494=CARTESIAN_POINT('',(1.443375672974,-2.5,0.));
#495=CARTESIAN_POINT('',(1.443375672974,-2.5,0.));
#496=CARTESIAN_POINT('',(2.886751345948,0.,3.859234022012));
#497=CARTESIAN_POINT('',(2.844974820279,-0.07235906502319,3.874439433847));
#498=CARTESIAN_POINT('',(2.762355005834,-0.2154607813526,3.902517832172));
#499=CARTESIAN_POINT('',(2.642004803897,-0.4239134458095,3.93714557345));
#500=CARTESIAN_POINT('',(2.522797401273,-0.6303867237931,3.96469303146));
#501=CARTESIAN_POINT('',(2.403866652689,-0.8363808229224,3.98484932479));
#502=CARTESIAN_POINT('',(2.284620674124,-1.042920916395,3.997216229409));
#503=CARTESIAN_POINT('',(2.16506352991,-1.249999964581,4.001391884648));
#504=CARTESIAN_POINT('',(2.04550638175,-1.457079019602,3.997216231998));
#505=CARTESIAN_POINT('',(1.926260407322,-1.66361910591,3.984849330354));
#506=CARTESIAN_POINT('',(1.807329660128,-1.869613202631,3.964693039909));
#507=CARTESIAN_POINT('',(1.688122257841,-2.076086480031,3.937145584932));
#508=CARTESIAN_POINT('',(1.567772024544,-2.284539198805,3.902517836257));
#509=CARTESIAN_POINT('',(1.485152202209,-2.427640928801,3.874439435145));
#510=CARTESIAN_POINT('',(1.443375672974,-2.5,3.859234022012));
#511=CARTESIAN_POINT('',(2.886751345948,0.,3.859234022012));
#512=CARTESIAN_POINT('',(2.886751345948,0.,0.));
#513=CARTESIAN_POINT('',(2.886751345948,0.,0.));
#514=CARTESIAN_POINT('',(1.443375672974,2.5,3.859234022012));
#515=CARTESIAN_POINT('',(1.485152198642,2.427640934979,3.874439433847));
#516=CARTESIAN_POINT('',(1.567772013084,2.284539218653,3.902517832171));
#517=CARTESIAN_POINT('',(1.688122215019,2.076086554201,3.937145573449));
#518=CARTESIAN_POINT('',(1.807329617641,1.869613276221,3.964693031458));
#519=CARTESIAN_POINT('',(1.926260366224,1.663619177093,3.984849324789));
#520=CARTESIAN_POINT('',(2.04550634479,1.45707908362,3.997216229408));
#521=CARTESIAN_POINT('',(2.165063489006,1.25000003543,4.001391884648));
#522=CARTESIAN_POINT('',(2.284620637164,1.042920980411,3.997216231998));
#523=CARTESIAN_POINT('',(2.403866611595,0.8363808940988,3.984849330355));
#524=CARTESIAN_POINT('',(2.522797358789,0.6303867973762,3.96469303991));
#525=CARTESIAN_POINT('',(2.642004761078,0.4239135199737,3.937145584933));
#526=CARTESIAN_POINT('',(2.762354994377,0.215460801198,3.902517836257));
#527=CARTESIAN_POINT('',(2.844974816712,0.07235907120017,3.874439435145));
#528=CARTESIAN_POINT('',(2.886751345948,0.,3.859234022012));
#529=CARTESIAN_POINT('',(1.443375672974,2.5,3.859234022012));
#530=CARTESIAN_POINT('',(1.443375672974,2.5,0.));
#531=CARTESIAN_POINT('',(1.443375672974,2.5,0.));
#532=CARTESIAN_POINT('',(1.443375672974,2.5,3.859234022012));
#533=CARTESIAN_POINT('',(1.360562722846,2.5,3.874304746442));
#534=CARTESIAN_POINT('',(1.196529571241,2.5,3.902198391092));
#535=CARTESIAN_POINT('',(0.9568795564991,2.5,3.936749575527));
#536=CARTESIAN_POINT('',(0.7185348763369,2.5,3.964386885718));
#537=CARTESIAN_POINT('',(0.4800943153903,2.5,3.984688416778));
#538=CARTESIAN_POINT('',(0.2404624533311,2.5,3.997182573863));
#539=CARTESIAN_POINT('',(0.08024924075756,2.5,4.000000011594));
#540=CARTESIAN_POINT('',(-1.545185471166E-9,2.5,4.000000011594));
#541=CARTESIAN_POINT('',(-1.545185471166E-9,2.5,4.000000011594));
#542=CARTESIAN_POINT('',(-1.545185471166E-9,2.5,4.000000011594));
#543=CARTESIAN_POINT('',(-0.08043614122509,2.5,4.000000011594));
#544=CARTESIAN_POINT('',(-0.2409854473609,2.5,3.997169815242));
#545=CARTESIAN_POINT('',(-0.4810556880168,2.5,3.984625950578));
#546=CARTESIAN_POINT('',(-0.7197267453539,2.5,3.964267633589));
#547=CARTESIAN_POINT('',(-0.9580554040639,2.5,3.936594353781));
#548=CARTESIAN_POINT('',(-1.197351462709,2.5,3.902063971535));
#549=CARTESIAN_POINT('',(-1.360878562154,2.5,3.874247268388));
#550=CARTESIAN_POINT('',(-1.443375672974,2.5,3.859234022012));
#551=CARTESIAN_POINT('',(-1.443375672974,2.5,3.859234022012));
#552=CARTESIAN_POINT('',(-1.443375672974,2.5,0.));
#553=CARTESIAN_POINT('',(-1.443375672974,2.5,0.));
#554=CARTESIAN_POINT('',(-2.886751345948,0.,3.859234022012));
#555=CARTESIAN_POINT('',(-2.84497482028,0.0723590650217,3.874439433847));
#556=CARTESIAN_POINT('',(-2.762355005837,0.2154607813483,3.902517832171));
#557=CARTESIAN_POINT('',(-2.642004803901,0.4239134458017,3.937145573449));
#558=CARTESIAN_POINT('',(-2.522797401279,0.6303867237826,3.964693031459));
#559=CARTESIAN_POINT('',(-2.403866652695,0.8363808229111,3.984849324789));
#560=CARTESIAN_POINT('',(-2.28462067413,1.042920916384,3.997216229408));
#561=CARTESIAN_POINT('',(-2.165063529915,1.249999964573,4.001391884648));
#562=CARTESIAN_POINT('',(-2.045506381756,1.457079019592,3.997216231998));
#563=CARTESIAN_POINT('',(-1.926260407326,1.663619105903,3.984849330354));
#564=CARTESIAN_POINT('',(-1.807329660132,1.869613202626,3.96469303991));
#565=CARTESIAN_POINT('',(-1.688122257843,2.076086480027,3.937145584932));
#566=CARTESIAN_POINT('',(-1.567772024545,2.284539198803,3.902517836257));
#567=CARTESIAN_POINT('',(-1.48515220221,2.4276409288,3.874439435145));
#568=CARTESIAN_POINT('',(-1.443375672974,2.5,3.859234022012));
#569=CARTESIAN_POINT('',(-2.886751345948,0.,0.));
#570=CARTESIAN_POINT('',(0.,0.,4.909925585666));
#571=CARTESIAN_POINT('',(0.,0.,4.909925585666));
#572=CARTESIAN_POINT('',(0.,0.,4.909925585666));
#573=CARTESIAN_POINT('',(0.,0.,4.374072888202));
#574=CARTESIAN_POINT('',(0.,0.,4.374072888202));
#575=MECHANICAL_DESIGN_GEOMETRIC_PRESENTATION_REPRESENTATION('',(#296,#297,
#298,#299),#576);
#576=(
GEOMETRIC_REPRESENTATION_CONTEXT(3)
GLOBAL_UNCERTAINTY_ASSIGNED_CONTEXT((#577))
GLOBAL_UNIT_ASSIGNED_CONTEXT((#583,#579,#578))
REPRESENTATION_CONTEXT('HGJ-PT1_8','TOP_LEVEL_ASSEMBLY_PART')
);
#577=UNCERTAINTY_MEASURE_WITH_UNIT(LENGTH_MEASURE(2.E-5),#583,
'DISTANCE_ACCURACY_VALUE','Maximum Tolerance applied to model');
#578=(
NAMED_UNIT(*)
SI_UNIT($,.STERADIAN.)
SOLID_ANGLE_UNIT()
);
#579=(
CONVERSION_BASED_UNIT('DEGREE',#581)
NAMED_UNIT(#580)
PLANE_ANGLE_UNIT()
);
#580=DIMENSIONAL_EXPONENTS(0.,0.,0.,0.,0.,0.,0.);
#581=PLANE_ANGLE_MEASURE_WITH_UNIT(PLANE_ANGLE_MEASURE(0.0174532925),#582);
#582=(
NAMED_UNIT(*)
PLANE_ANGLE_UNIT()
SI_UNIT($,.RADIAN.)
);
#583=(
LENGTH_UNIT()
NAMED_UNIT(*)
SI_UNIT(.MILLI.,.METRE.)
);
ENDSEC;
END-ISO-10303-21;
