ISO-10303-21;
HEADER;
/* Generated by software containing ST-Developer
 * from STEP Tools, Inc. (www.steptools.com) 
 */
/* OPTION: using custom schema-name function */

FILE_DESCRIPTION(
/* description */ (''),
/* implementation_level */ '2;1');

FILE_NAME(
/* name */ 'RKY25S.stp',
/* time_stamp */ '2022-02-03T10:43:18+09:00',
/* author */ (''),
/* organization */ (''),
/* preprocessor_version */ 'ST-DEVELOPER v16',
/* originating_system */ 'SIEMENS PLM Software NX 10.0',
/* authorisation */ '');

FILE_SCHEMA (('AUTOMOTIVE_DESIGN { 1 0 10303 214 3 1 1 1 }'));
ENDSEC;

DATA;
#10=CONSTRUCTIVE_GEOMETRY_REPRESENTATION_RELATIONSHIP(
'supplemental geometry','',#26,#11);
#11=CONSTRUCTIVE_GEOMETRY_REPRESENTATION('supplemental geometry',(#210,
#211),#355);
#12=GEOMETRICALLY_BOUNDED_WIREFRAME_SHAPE_REPRESENTATION('RKY25S-None',
(#27),#355);
#13=SHAPE_REPRESENTATION_RELATIONSHIP('None',
'relationship between RKY25S-None and RKY25S-None',#26,#15);
#14=SHAPE_REPRESENTATION_RELATIONSHIP('None',
'relationship between RKY25S-None and RKY25S-None',#26,#12);
#15=ADVANCED_BREP_SHAPE_REPRESENTATION('RKY25S-None',(#33),#355);
#16=SHAPE_DEFINITION_REPRESENTATION(#17,#26);
#17=PRODUCT_DEFINITION_SHAPE('','',#18);
#18=PRODUCT_DEFINITION('part definition','',#20,#19);
#19=PRODUCT_DEFINITION_CONTEXT('part definition',#25,'design');
#20=PRODUCT_DEFINITION_FORMATION_WITH_SPECIFIED_SOURCE(' ',' ',#22,
 .NOT_KNOWN.);
#21=PRODUCT_RELATED_PRODUCT_CATEGORY('part','',(#22));
#22=PRODUCT('RKY25S','RKY25S','NOT SPECIFIED',(#23));
#23=PRODUCT_CONTEXT('',#25,'mechanical');
#24=APPLICATION_PROTOCOL_DEFINITION('international standard',
'automotive_design',2010,#25);
#25=APPLICATION_CONTEXT(
'core data for automotive mechanical design processes');
#26=SHAPE_REPRESENTATION('RKY25S-None',(#209),#355);
#27=GEOMETRIC_CURVE_SET('None',(#305));
#28=SURFACE_STYLE_USAGE(.BOTH.,#29);
#29=SURFACE_SIDE_STYLE('',(#30));
#30=SURFACE_STYLE_FILL_AREA(#31);
#31=FILL_AREA_STYLE('',(#32));
#32=FILL_AREA_STYLE_COLOUR('',#192);
#33=MANIFOLD_SOLID_BREP('',#34);
#34=CLOSED_SHELL('',(#43,#44,#45,#46,#47,#48,#49,#50,#51,#52,#53,#54));
#35=PLANE('',#228);
#36=PLANE('',#234);
#37=CONICAL_SURFACE('',#220,4.218073792141,20.);
#38=CONICAL_SURFACE('',#223,4.218073792141,20.);
#39=CONICAL_SURFACE('',#232,5.5,45.);
#40=CONICAL_SURFACE('',#236,5.5,45.);
#41=TOROIDAL_SURFACE('',#218,21.23,20.);
#42=TOROIDAL_SURFACE('',#225,21.23,20.);
#43=ADVANCED_FACE('',(#59),#55,.T.);
#44=ADVANCED_FACE('',(#60),#41,.F.);
#45=ADVANCED_FACE('',(#61),#37,.T.);
#46=ADVANCED_FACE('',(#62),#38,.T.);
#47=ADVANCED_FACE('',(#63),#42,.F.);
#48=ADVANCED_FACE('',(#64),#56,.T.);
#49=ADVANCED_FACE('',(#65),#35,.T.);
#50=ADVANCED_FACE('',(#66),#57,.T.);
#51=ADVANCED_FACE('',(#67),#39,.T.);
#52=ADVANCED_FACE('',(#68),#36,.F.);
#53=ADVANCED_FACE('',(#69),#40,.T.);
#54=ADVANCED_FACE('',(#70),#58,.T.);
#55=CYLINDRICAL_SURFACE('',#214,1.23);
#56=CYLINDRICAL_SURFACE('',#227,1.23);
#57=CYLINDRICAL_SURFACE('',#230,6.);
#58=CYLINDRICAL_SURFACE('',#237,6.);
#59=FACE_OUTER_BOUND('',#71,.T.);
#60=FACE_OUTER_BOUND('',#72,.T.);
#61=FACE_OUTER_BOUND('',#73,.T.);
#62=FACE_OUTER_BOUND('',#74,.T.);
#63=FACE_OUTER_BOUND('',#75,.T.);
#64=FACE_OUTER_BOUND('',#76,.T.);
#65=FACE_OUTER_BOUND('',#77,.T.);
#66=FACE_OUTER_BOUND('',#78,.T.);
#67=FACE_OUTER_BOUND('',#79,.T.);
#68=FACE_OUTER_BOUND('',#80,.T.);
#69=FACE_OUTER_BOUND('',#81,.T.);
#70=FACE_OUTER_BOUND('',#82,.T.);
#71=EDGE_LOOP('',(#97,#98,#99,#100));
#72=EDGE_LOOP('',(#101,#102,#103,#104));
#73=EDGE_LOOP('',(#105,#106,#107,#108));
#74=EDGE_LOOP('',(#109,#110,#111,#112));
#75=EDGE_LOOP('',(#113,#114,#115,#116));
#76=EDGE_LOOP('',(#117,#118,#119,#120));
#77=EDGE_LOOP('',(#121,#122));
#78=EDGE_LOOP('',(#123,#124,#125,#126));
#79=EDGE_LOOP('',(#127,#128,#129,#130));
#80=EDGE_LOOP('',(#131,#132));
#81=EDGE_LOOP('',(#133,#134,#135,#136));
#82=EDGE_LOOP('',(#137,#138,#139,#140));
#83=CIRCLE('',#212,1.23);
#84=CIRCLE('',#213,1.23);
#85=CIRCLE('',#215,20.);
#86=CIRCLE('',#216,20.);
#87=CIRCLE('',#217,2.436147584282);
#88=CIRCLE('',#219,6.);
#89=CIRCLE('',#221,6.);
#90=CIRCLE('',#222,2.436147584282);
#91=CIRCLE('',#224,1.23);
#92=CIRCLE('',#226,1.23);
#93=CIRCLE('',#229,6.);
#94=CIRCLE('',#231,5.);
#95=CIRCLE('',#233,5.);
#96=CIRCLE('',#235,6.);
#97=ORIENTED_EDGE('',*,*,#153,.F.);
#98=ORIENTED_EDGE('',*,*,#154,.F.);
#99=ORIENTED_EDGE('',*,*,#155,.T.);
#100=ORIENTED_EDGE('',*,*,#156,.T.);
#101=ORIENTED_EDGE('',*,*,#157,.F.);
#102=ORIENTED_EDGE('',*,*,#156,.F.);
#103=ORIENTED_EDGE('',*,*,#158,.T.);
#104=ORIENTED_EDGE('',*,*,#159,.T.);
#105=ORIENTED_EDGE('',*,*,#160,.T.);
#106=ORIENTED_EDGE('',*,*,#161,.T.);
#107=ORIENTED_EDGE('',*,*,#162,.F.);
#108=ORIENTED_EDGE('',*,*,#159,.F.);
#109=ORIENTED_EDGE('',*,*,#162,.T.);
#110=ORIENTED_EDGE('',*,*,#163,.F.);
#111=ORIENTED_EDGE('',*,*,#160,.F.);
#112=ORIENTED_EDGE('',*,*,#164,.F.);
#113=ORIENTED_EDGE('',*,*,#158,.F.);
#114=ORIENTED_EDGE('',*,*,#165,.F.);
#115=ORIENTED_EDGE('',*,*,#157,.T.);
#116=ORIENTED_EDGE('',*,*,#164,.T.);
#117=ORIENTED_EDGE('',*,*,#155,.F.);
#118=ORIENTED_EDGE('',*,*,#166,.T.);
#119=ORIENTED_EDGE('',*,*,#153,.T.);
#120=ORIENTED_EDGE('',*,*,#165,.T.);
#121=ORIENTED_EDGE('',*,*,#154,.T.);
#122=ORIENTED_EDGE('',*,*,#166,.F.);
#123=ORIENTED_EDGE('',*,*,#167,.T.);
#124=ORIENTED_EDGE('',*,*,#163,.T.);
#125=ORIENTED_EDGE('',*,*,#168,.F.);
#126=ORIENTED_EDGE('',*,*,#169,.F.);
#127=ORIENTED_EDGE('',*,*,#170,.T.);
#128=ORIENTED_EDGE('',*,*,#169,.T.);
#129=ORIENTED_EDGE('',*,*,#171,.F.);
#130=ORIENTED_EDGE('',*,*,#172,.F.);
#131=ORIENTED_EDGE('',*,*,#173,.T.);
#132=ORIENTED_EDGE('',*,*,#172,.T.);
#133=ORIENTED_EDGE('',*,*,#171,.T.);
#134=ORIENTED_EDGE('',*,*,#174,.T.);
#135=ORIENTED_EDGE('',*,*,#170,.F.);
#136=ORIENTED_EDGE('',*,*,#173,.F.);
#137=ORIENTED_EDGE('',*,*,#168,.T.);
#138=ORIENTED_EDGE('',*,*,#161,.F.);
#139=ORIENTED_EDGE('',*,*,#167,.F.);
#140=ORIENTED_EDGE('',*,*,#174,.F.);
#141=VERTEX_POINT('',#309);
#142=VERTEX_POINT('',#310);
#143=VERTEX_POINT('',#312);
#144=VERTEX_POINT('',#314);
#145=VERTEX_POINT('',#318);
#146=VERTEX_POINT('',#320);
#147=VERTEX_POINT('',#324);
#148=VERTEX_POINT('',#326);
#149=VERTEX_POINT('',#338);
#150=VERTEX_POINT('',#340);
#151=VERTEX_POINT('',#344);
#152=VERTEX_POINT('',#346);
#153=EDGE_CURVE('',#141,#142,#175,.T.);
#154=EDGE_CURVE('',#143,#141,#83,.T.);
#155=EDGE_CURVE('',#143,#144,#176,.T.);
#156=EDGE_CURVE('',#144,#142,#84,.T.);
#157=EDGE_CURVE('',#142,#145,#85,.T.);
#158=EDGE_CURVE('',#144,#146,#86,.T.);
#159=EDGE_CURVE('',#146,#145,#87,.T.);
#160=EDGE_CURVE('',#146,#147,#177,.T.);
#161=EDGE_CURVE('',#147,#148,#88,.T.);
#162=EDGE_CURVE('',#145,#148,#178,.T.);
#163=EDGE_CURVE('',#147,#148,#89,.T.);
#164=EDGE_CURVE('',#145,#146,#90,.T.);
#165=EDGE_CURVE('',#142,#144,#91,.T.);
#166=EDGE_CURVE('',#143,#141,#92,.T.);
#167=EDGE_CURVE('',#149,#147,#179,.T.);
#168=EDGE_CURVE('',#150,#148,#180,.T.);
#169=EDGE_CURVE('',#149,#150,#93,.T.);
#170=EDGE_CURVE('',#151,#149,#181,.T.);
#171=EDGE_CURVE('',#152,#150,#182,.T.);
#172=EDGE_CURVE('',#151,#152,#94,.T.);
#173=EDGE_CURVE('',#152,#151,#95,.T.);
#174=EDGE_CURVE('',#150,#149,#96,.T.);
#175=LINE('',#308,#183);
#176=LINE('',#313,#184);
#177=LINE('',#323,#185);
#178=LINE('',#327,#186);
#179=LINE('',#337,#187);
#180=LINE('',#339,#188);
#181=LINE('',#343,#189);
#182=LINE('',#345,#190);
#183=VECTOR('',#244,1.);
#184=VECTOR('',#247,1.);
#185=VECTOR('',#260,1.);
#186=VECTOR('',#263,1.);
#187=VECTOR('',#282,1.);
#188=VECTOR('',#283,1.);
#189=VECTOR('',#288,1.);
#190=VECTOR('',#289,1.);
#191=COLOUR_RGB('Strong Stone',0.576470588235294,0.54508278019379,0.392156862745098);
#192=COLOUR_RGB('spare part',0.301960784313725,0.301960784313725,0.301960784313725);
#193=CURVE_STYLE('',#195,POSITIVE_LENGTH_MEASURE(0.13),#208);
#194=CURVE_STYLE('',#196,POSITIVE_LENGTH_MEASURE(0.13),#191);
#195=DRAUGHTING_PRE_DEFINED_CURVE_FONT('continuous');
#196=DRAUGHTING_PRE_DEFINED_CURVE_FONT('continuous');
#197=PRESENTATION_LAYER_ASSIGNMENT('1','Layer 1',(#305,#210,#211,#33));
#198=STYLED_ITEM('',(#202),#305);
#199=STYLED_ITEM('',(#203),#210);
#200=STYLED_ITEM('',(#204),#211);
#201=STYLED_ITEM('',(#205),#33);
#202=PRESENTATION_STYLE_ASSIGNMENT((#206));
#203=PRESENTATION_STYLE_ASSIGNMENT((#193));
#204=PRESENTATION_STYLE_ASSIGNMENT((#194));
#205=PRESENTATION_STYLE_ASSIGNMENT((#28));
#206=POINT_STYLE('',#207,POSITIVE_LENGTH_MEASURE(3.),#208);
#207=PRE_DEFINED_POINT_MARKER_SYMBOL('plus');
#208=DRAUGHTING_PRE_DEFINED_COLOUR('yellow');
#209=AXIS2_PLACEMENT_3D('',#304,#238,#239);
#210=AXIS2_PLACEMENT_3D('PCS',#306,#240,#241);
#211=AXIS2_PLACEMENT_3D('',#307,#242,#243);
#212=AXIS2_PLACEMENT_3D('',#311,#245,#246);
#213=AXIS2_PLACEMENT_3D('',#315,#248,#249);
#214=AXIS2_PLACEMENT_3D('',#316,#250,#251);
#215=AXIS2_PLACEMENT_3D('',#317,#252,#253);
#216=AXIS2_PLACEMENT_3D('',#319,#254,#255);
#217=AXIS2_PLACEMENT_3D('',#321,#256,#257);
#218=AXIS2_PLACEMENT_3D('',#322,#258,#259);
#219=AXIS2_PLACEMENT_3D('',#325,#261,#262);
#220=AXIS2_PLACEMENT_3D('',#328,#264,#265);
#221=AXIS2_PLACEMENT_3D('',#329,#266,#267);
#222=AXIS2_PLACEMENT_3D('',#330,#268,#269);
#223=AXIS2_PLACEMENT_3D('',#331,#270,#271);
#224=AXIS2_PLACEMENT_3D('',#332,#272,#273);
#225=AXIS2_PLACEMENT_3D('',#333,#274,#275);
#226=AXIS2_PLACEMENT_3D('',#334,#276,#277);
#227=AXIS2_PLACEMENT_3D('',#335,#278,#279);
#228=AXIS2_PLACEMENT_3D('',#336,#280,#281);
#229=AXIS2_PLACEMENT_3D('',#341,#284,#285);
#230=AXIS2_PLACEMENT_3D('',#342,#286,#287);
#231=AXIS2_PLACEMENT_3D('',#347,#290,#291);
#232=AXIS2_PLACEMENT_3D('',#348,#292,#293);
#233=AXIS2_PLACEMENT_3D('',#349,#294,#295);
#234=AXIS2_PLACEMENT_3D('',#350,#296,#297);
#235=AXIS2_PLACEMENT_3D('',#351,#298,#299);
#236=AXIS2_PLACEMENT_3D('',#352,#300,#301);
#237=AXIS2_PLACEMENT_3D('',#353,#302,#303);
#238=DIRECTION('',(0.,0.,1.));
#239=DIRECTION('',(1.,0.,0.));
#240=DIRECTION('',(0.,0.,1.));
#241=DIRECTION('',(1.,0.,0.));
#242=DIRECTION('',(0.,0.,1.));
#243=DIRECTION('',(1.,0.,0.));
#244=DIRECTION('',(0.,0.,-1.));
#245=DIRECTION('',(0.,0.,1.));
#246=DIRECTION('',(0.,-1.,0.));
#247=DIRECTION('',(0.,0.,-1.));
#248=DIRECTION('',(0.,0.,1.));
#249=DIRECTION('',(0.,-1.,0.));
#250=DIRECTION('',(0.,0.,1.));
#251=DIRECTION('',(0.,-1.,0.));
#252=DIRECTION('',(1.,-1.014553024925E-14,0.));
#253=DIRECTION('',(-9.53367990918033E-15,-0.939692620785897,-0.342020143325699));
#254=DIRECTION('',(-1.,1.026869561604E-14,0.));
#255=DIRECTION('',(9.64941749548928E-15,0.939692620785897,-0.342020143325699));
#256=DIRECTION('',(0.,0.,1.));
#257=DIRECTION('',(0.,-1.,0.));
#258=DIRECTION('',(0.,0.,1.));
#259=DIRECTION('',(0.00445874041302382,0.999990059767561,0.));
#260=DIRECTION('',(0.,-0.342020143325699,-0.939692620785897));
#261=DIRECTION('',(0.,0.,1.));
#262=DIRECTION('',(0.,-1.,0.));
#263=DIRECTION('',(0.,0.342020143325699,-0.939692620785897));
#264=DIRECTION('',(0.,0.,-1.));
#265=DIRECTION('',(0.,1.,7.53841852339069E-17));
#266=DIRECTION('',(0.,0.,-1.));
#267=DIRECTION('',(0.,-1.,0.));
#268=DIRECTION('',(0.,0.,1.));
#269=DIRECTION('',(0.,1.,0.));
#270=DIRECTION('',(0.,0.,-1.));
#271=DIRECTION('',(0.,1.,7.53841852339069E-17));
#272=DIRECTION('',(0.,0.,1.));
#273=DIRECTION('',(0.,1.,0.));
#274=DIRECTION('',(0.,0.,1.));
#275=DIRECTION('',(-0.00445874041302382,-0.999990059767561,0.));
#276=DIRECTION('',(0.,0.,-1.));
#277=DIRECTION('',(0.,-1.,0.));
#278=DIRECTION('',(0.,0.,1.));
#279=DIRECTION('',(0.,-1.,0.));
#280=DIRECTION('',(0.,0.,1.));
#281=DIRECTION('',(0.,-1.,0.));
#282=DIRECTION('',(-1.174881703058E-14,0.,1.));
#283=DIRECTION('',(1.17888009293E-14,0.,1.));
#284=DIRECTION('',(0.,0.,-1.));
#285=DIRECTION('',(0.,-1.,0.));
#286=DIRECTION('',(0.,0.,1.));
#287=DIRECTION('',(0.,-1.,0.));
#288=DIRECTION('',(-8.10032858981854E-14,-0.707106781186547,0.707106781186547));
#289=DIRECTION('',(8.15410826507755E-14,0.707106781186547,0.707106781186547));
#290=DIRECTION('',(0.,0.,-1.));
#291=DIRECTION('',(0.,-1.,0.));
#292=DIRECTION('',(0.,0.,1.));
#293=DIRECTION('',(1.,0.,-4.14056324449959E-17));
#294=DIRECTION('',(0.,0.,-1.));
#295=DIRECTION('',(0.,1.,0.));
#296=DIRECTION('',(0.,0.,1.));
#297=DIRECTION('',(0.,-1.,0.));
#298=DIRECTION('',(0.,0.,-1.));
#299=DIRECTION('',(0.,1.,0.));
#300=DIRECTION('',(0.,0.,1.));
#301=DIRECTION('',(1.,0.,-4.14056324449959E-17));
#302=DIRECTION('',(0.,0.,1.));
#303=DIRECTION('',(0.,-1.,0.));
#304=CARTESIAN_POINT('',(0.,0.,0.));
#305=CARTESIAN_POINT('',(0.,0.,0.));
#306=CARTESIAN_POINT('',(0.,0.,0.));
#307=CARTESIAN_POINT('',(0.,0.,0.));
#308=CARTESIAN_POINT('',(0.,1.23,0.));
#309=CARTESIAN_POINT('',(0.,1.23,0.));
#310=CARTESIAN_POINT('',(0.,1.23,-4.473460385831));
#311=CARTESIAN_POINT('',(0.,2.019492609961E-14,0.));
#312=CARTESIAN_POINT('',(0.,-1.23,0.));
#313=CARTESIAN_POINT('',(0.,-1.23,0.));
#314=CARTESIAN_POINT('',(0.,-1.23,-4.473460385831));
#315=CARTESIAN_POINT('',(0.,1.937316475821E-14,-4.473460385831));
#316=CARTESIAN_POINT('',(0.,0.,-115.5));
#317=CARTESIAN_POINT('',(2.153832667773E-13,21.23,-4.473460385831));
#318=CARTESIAN_POINT('',(0.,2.436147584282,-11.31386325234));
#319=CARTESIAN_POINT('',(-2.18006168673E-13,-21.23,-4.473460385831));
#320=CARTESIAN_POINT('',(0.,-2.436147584282,-11.31386325234));
#321=CARTESIAN_POINT('',(0.,1.811660313691E-14,-11.31386325234));
#322=CARTESIAN_POINT('',(0.,1.937316475821E-14,-4.473460385831));
#323=CARTESIAN_POINT('',(0.,-2.436147584282,-11.31386325234));
#324=CARTESIAN_POINT('',(0.,-6.,-21.1054672908));
#325=CARTESIAN_POINT('',(0.,1.631791465528E-14,-21.1054672908));
#326=CARTESIAN_POINT('',(0.,6.,-21.1054672908));
#327=CARTESIAN_POINT('',(0.,2.436147584282,-11.31386325234));
#328=CARTESIAN_POINT('',(0.,1.72172588961E-14,-16.20966527157));
#329=CARTESIAN_POINT('',(0.,1.631791465528E-14,-21.1054672908));
#330=CARTESIAN_POINT('',(0.,1.811660313691E-14,-11.31386325234));
#331=CARTESIAN_POINT('',(0.,1.72172588961E-14,-16.20966527157));
#332=CARTESIAN_POINT('',(0.,1.937316475821E-14,-4.473460385831));
#333=CARTESIAN_POINT('',(0.,1.937316475821E-14,-4.473460385831));
#334=CARTESIAN_POINT('',(0.,2.019492609961E-14,0.));
#335=CARTESIAN_POINT('',(0.,0.,-115.5));
#336=CARTESIAN_POINT('',(0.,2.019492609961E-14,0.));
#337=CARTESIAN_POINT('',(0.,-6.,-21.1054672908));
#338=CARTESIAN_POINT('',(0.,-6.,-109.));
#339=CARTESIAN_POINT('',(0.,6.,-21.1054672908));
#340=CARTESIAN_POINT('',(0.,6.,-109.));
#341=CARTESIAN_POINT('',(0.,0.,-109.));
#342=CARTESIAN_POINT('',(0.,0.,-115.5));
#343=CARTESIAN_POINT('',(1.148314910422E-12,-5.,-110.));
#344=CARTESIAN_POINT('',(0.,-5.,-110.));
#345=CARTESIAN_POINT('',(-1.152589835977E-12,5.,-110.));
#346=CARTESIAN_POINT('',(0.,5.,-110.));
#347=CARTESIAN_POINT('',(0.,0.,-110.));
#348=CARTESIAN_POINT('',(0.,0.,-109.5));
#349=CARTESIAN_POINT('',(0.,0.,-110.));
#350=CARTESIAN_POINT('',(0.,0.,-110.));
#351=CARTESIAN_POINT('',(0.,0.,-109.));
#352=CARTESIAN_POINT('',(0.,0.,-109.5));
#353=CARTESIAN_POINT('',(0.,0.,-115.5));
#354=MECHANICAL_DESIGN_GEOMETRIC_PRESENTATION_REPRESENTATION('',(#198,#199,
#200,#201),#355);
#355=(
GEOMETRIC_REPRESENTATION_CONTEXT(3)
GLOBAL_UNCERTAINTY_ASSIGNED_CONTEXT((#356))
GLOBAL_UNIT_ASSIGNED_CONTEXT((#362,#358,#357))
REPRESENTATION_CONTEXT('RKY25S','TOP_LEVEL_ASSEMBLY_PART')
);
#356=UNCERTAINTY_MEASURE_WITH_UNIT(LENGTH_MEASURE(2.E-5),#362,
'DISTANCE_ACCURACY_VALUE','Maximum Tolerance applied to model');
#357=(
NAMED_UNIT(*)
SI_UNIT($,.STERADIAN.)
SOLID_ANGLE_UNIT()
);
#358=(
CONVERSION_BASED_UNIT('DEGREE',#360)
NAMED_UNIT(#359)
PLANE_ANGLE_UNIT()
);
#359=DIMENSIONAL_EXPONENTS(0.,0.,0.,0.,0.,0.,0.);
#360=PLANE_ANGLE_MEASURE_WITH_UNIT(PLANE_ANGLE_MEASURE(0.0174532925),#361);
#361=(
NAMED_UNIT(*)
PLANE_ANGLE_UNIT()
SI_UNIT($,.RADIAN.)
);
#362=(
LENGTH_UNIT()
NAMED_UNIT(*)
SI_UNIT(.MILLI.,.METRE.)
);
ENDSEC;
END-ISO-10303-21;
