ISO-10303-21;
HEADER;
/* Generated by software containing ST-Developer
 * from STEP Tools, Inc. (www.steptools.com) 
 */
/* OPTION: using custom schema-name function */

FILE_DESCRIPTION(
/* description */ (''),
/* implementation_level */ '2;1');

FILE_NAME(
/* name */ 'WA-M10.stp',
/* time_stamp */ '2022-02-03T10:43:14+09:00',
/* author */ (''),
/* organization */ (''),
/* preprocessor_version */ 'ST-DEVELOPER v16',
/* originating_system */ 'SIEMENS PLM Software NX 10.0',
/* authorisation */ '');

FILE_SCHEMA (('AUTOMOTIVE_DESIGN { 1 0 10303 214 3 1 1 1 }'));
ENDSEC;

DATA;
#10=CONSTRUCTIVE_GEOMETRY_REPRESENTATION_RELATIONSHIP(
'supplemental geometry','',#26,#11);
#11=CONSTRUCTIVE_GEOMETRY_REPRESENTATION('supplemental geometry',(#142,
#143),#227);
#12=GEOMETRICALLY_BOUNDED_WIREFRAME_SHAPE_REPRESENTATION('WA-M10-None',
(#27),#227);
#13=SHAPE_REPRESENTATION_RELATIONSHIP('None',
'relationship between WA-M10-None and WA-M10-None',#26,#15);
#14=SHAPE_REPRESENTATION_RELATIONSHIP('None',
'relationship between WA-M10-None and WA-M10-None',#26,#12);
#15=ADVANCED_BREP_SHAPE_REPRESENTATION('WA-M10-None',(#33),#227);
#16=SHAPE_DEFINITION_REPRESENTATION(#17,#26);
#17=PRODUCT_DEFINITION_SHAPE('','',#18);
#18=PRODUCT_DEFINITION('part definition','',#20,#19);
#19=PRODUCT_DEFINITION_CONTEXT('part definition',#25,'design');
#20=PRODUCT_DEFINITION_FORMATION_WITH_SPECIFIED_SOURCE(' ',' ',#22,
 .NOT_KNOWN.);
#21=PRODUCT_RELATED_PRODUCT_CATEGORY('part','',(#22));
#22=PRODUCT('WA-M10','WA-M10','NOT SPECIFIED',(#23));
#23=PRODUCT_CONTEXT('',#25,'mechanical');
#24=APPLICATION_PROTOCOL_DEFINITION('international standard',
'automotive_design',2010,#25);
#25=APPLICATION_CONTEXT(
'core data for automotive mechanical design processes');
#26=SHAPE_REPRESENTATION('WA-M10-None',(#141),#227);
#27=GEOMETRIC_CURVE_SET('None',(#197));
#28=SURFACE_STYLE_USAGE(.BOTH.,#29);
#29=SURFACE_SIDE_STYLE('',(#30));
#30=SURFACE_STYLE_FILL_AREA(#31);
#31=FILL_AREA_STYLE('',(#32));
#32=FILL_AREA_STYLE_COLOUR('',#124);
#33=MANIFOLD_SOLID_BREP('',#34);
#34=CLOSED_SHELL('',(#51,#52,#53,#54,#55,#56));
#35=CYLINDRICAL_SURFACE('',#150,7.);
#36=CYLINDRICAL_SURFACE('',#152,7.);
#37=CYLINDRICAL_SURFACE('',#156,5.);
#38=CYLINDRICAL_SURFACE('',#157,5.);
#39=FACE_OUTER_BOUND('',#65,.T.);
#40=FACE_OUTER_BOUND('',#66,.T.);
#41=FACE_OUTER_BOUND('',#69,.T.);
#42=FACE_OUTER_BOUND('',#70,.T.);
#43=LINE('',#209,#47);
#44=LINE('',#213,#48);
#45=LINE('',#222,#49);
#46=LINE('',#223,#50);
#47=VECTOR('',#174,1.);
#48=VECTOR('',#177,1.);
#49=VECTOR('',#190,1.);
#50=VECTOR('',#191,1.);
#51=ADVANCED_FACE('',(#59,#60),#57,.F.);
#52=ADVANCED_FACE('',(#39),#35,.T.);
#53=ADVANCED_FACE('',(#40),#36,.T.);
#54=ADVANCED_FACE('',(#61,#62),#58,.T.);
#55=ADVANCED_FACE('',(#41),#37,.F.);
#56=ADVANCED_FACE('',(#42),#38,.F.);
#57=PLANE('',#148);
#58=PLANE('',#155);
#59=FACE_BOUND('',#63,.T.);
#60=FACE_BOUND('',#64,.T.);
#61=FACE_BOUND('',#67,.T.);
#62=FACE_BOUND('',#68,.T.);
#63=EDGE_LOOP('',(#71,#72));
#64=EDGE_LOOP('',(#73,#74));
#65=EDGE_LOOP('',(#75,#76,#77,#78));
#66=EDGE_LOOP('',(#79,#80,#81,#82));
#67=EDGE_LOOP('',(#83,#84));
#68=EDGE_LOOP('',(#85,#86));
#69=EDGE_LOOP('',(#87,#88,#89,#90));
#70=EDGE_LOOP('',(#91,#92,#93,#94));
#71=ORIENTED_EDGE('',*,*,#103,.F.);
#72=ORIENTED_EDGE('',*,*,#104,.F.);
#73=ORIENTED_EDGE('',*,*,#105,.F.);
#74=ORIENTED_EDGE('',*,*,#106,.F.);
#75=ORIENTED_EDGE('',*,*,#107,.T.);
#76=ORIENTED_EDGE('',*,*,#108,.F.);
#77=ORIENTED_EDGE('',*,*,#109,.F.);
#78=ORIENTED_EDGE('',*,*,#104,.T.);
#79=ORIENTED_EDGE('',*,*,#109,.T.);
#80=ORIENTED_EDGE('',*,*,#110,.F.);
#81=ORIENTED_EDGE('',*,*,#107,.F.);
#82=ORIENTED_EDGE('',*,*,#103,.T.);
#83=ORIENTED_EDGE('',*,*,#110,.T.);
#84=ORIENTED_EDGE('',*,*,#108,.T.);
#85=ORIENTED_EDGE('',*,*,#111,.T.);
#86=ORIENTED_EDGE('',*,*,#112,.T.);
#87=ORIENTED_EDGE('',*,*,#113,.T.);
#88=ORIENTED_EDGE('',*,*,#112,.F.);
#89=ORIENTED_EDGE('',*,*,#114,.F.);
#90=ORIENTED_EDGE('',*,*,#106,.T.);
#91=ORIENTED_EDGE('',*,*,#114,.T.);
#92=ORIENTED_EDGE('',*,*,#111,.F.);
#93=ORIENTED_EDGE('',*,*,#113,.F.);
#94=ORIENTED_EDGE('',*,*,#105,.T.);
#95=VERTEX_POINT('',#201);
#96=VERTEX_POINT('',#202);
#97=VERTEX_POINT('',#205);
#98=VERTEX_POINT('',#206);
#99=VERTEX_POINT('',#210);
#100=VERTEX_POINT('',#212);
#101=VERTEX_POINT('',#218);
#102=VERTEX_POINT('',#219);
#103=EDGE_CURVE('',#95,#96,#115,.T.);
#104=EDGE_CURVE('',#96,#95,#116,.T.);
#105=EDGE_CURVE('',#97,#98,#117,.T.);
#106=EDGE_CURVE('',#98,#97,#118,.T.);
#107=EDGE_CURVE('',#95,#99,#43,.T.);
#108=EDGE_CURVE('',#100,#99,#119,.T.);
#109=EDGE_CURVE('',#96,#100,#44,.T.);
#110=EDGE_CURVE('',#99,#100,#120,.T.);
#111=EDGE_CURVE('',#101,#102,#121,.T.);
#112=EDGE_CURVE('',#102,#101,#122,.T.);
#113=EDGE_CURVE('',#97,#101,#45,.T.);
#114=EDGE_CURVE('',#98,#102,#46,.T.);
#115=CIRCLE('',#144,7.);
#116=CIRCLE('',#145,7.);
#117=CIRCLE('',#146,5.);
#118=CIRCLE('',#147,5.);
#119=CIRCLE('',#149,7.);
#120=CIRCLE('',#151,7.);
#121=CIRCLE('',#153,5.);
#122=CIRCLE('',#154,5.);
#123=COLOUR_RGB('Strong Stone',0.576470588235294,0.54508278019379,0.392156862745098);
#124=COLOUR_RGB('spare part',0.301960784313725,0.301960784313725,0.301960784313725);
#125=CURVE_STYLE('',#127,POSITIVE_LENGTH_MEASURE(0.13),#140);
#126=CURVE_STYLE('',#128,POSITIVE_LENGTH_MEASURE(0.13),#123);
#127=DRAUGHTING_PRE_DEFINED_CURVE_FONT('continuous');
#128=DRAUGHTING_PRE_DEFINED_CURVE_FONT('continuous');
#129=PRESENTATION_LAYER_ASSIGNMENT('1','Layer 1',(#197,#142,#143,#33));
#130=STYLED_ITEM('',(#134),#197);
#131=STYLED_ITEM('',(#135),#142);
#132=STYLED_ITEM('',(#136),#143);
#133=STYLED_ITEM('',(#137),#33);
#134=PRESENTATION_STYLE_ASSIGNMENT((#138));
#135=PRESENTATION_STYLE_ASSIGNMENT((#125));
#136=PRESENTATION_STYLE_ASSIGNMENT((#126));
#137=PRESENTATION_STYLE_ASSIGNMENT((#28));
#138=POINT_STYLE('',#139,POSITIVE_LENGTH_MEASURE(3.),#140);
#139=PRE_DEFINED_POINT_MARKER_SYMBOL('plus');
#140=DRAUGHTING_PRE_DEFINED_COLOUR('yellow');
#141=AXIS2_PLACEMENT_3D('',#196,#158,#159);
#142=AXIS2_PLACEMENT_3D('PCS',#198,#160,#161);
#143=AXIS2_PLACEMENT_3D('',#199,#162,#163);
#144=AXIS2_PLACEMENT_3D('',#200,#164,#165);
#145=AXIS2_PLACEMENT_3D('',#203,#166,#167);
#146=AXIS2_PLACEMENT_3D('',#204,#168,#169);
#147=AXIS2_PLACEMENT_3D('',#207,#170,#171);
#148=AXIS2_PLACEMENT_3D('',#208,#172,#173);
#149=AXIS2_PLACEMENT_3D('',#211,#175,#176);
#150=AXIS2_PLACEMENT_3D('',#214,#178,#179);
#151=AXIS2_PLACEMENT_3D('',#215,#180,#181);
#152=AXIS2_PLACEMENT_3D('',#216,#182,#183);
#153=AXIS2_PLACEMENT_3D('',#217,#184,#185);
#154=AXIS2_PLACEMENT_3D('',#220,#186,#187);
#155=AXIS2_PLACEMENT_3D('',#221,#188,#189);
#156=AXIS2_PLACEMENT_3D('',#224,#192,#193);
#157=AXIS2_PLACEMENT_3D('',#225,#194,#195);
#158=DIRECTION('',(0.,0.,1.));
#159=DIRECTION('',(1.,0.,0.));
#160=DIRECTION('',(0.,0.,1.));
#161=DIRECTION('',(1.,0.,0.));
#162=DIRECTION('',(0.,0.,1.));
#163=DIRECTION('',(1.,0.,0.));
#164=DIRECTION('',(0.,0.,1.));
#165=DIRECTION('',(-1.,0.,0.));
#166=DIRECTION('',(0.,0.,1.));
#167=DIRECTION('',(1.,0.,0.));
#168=DIRECTION('',(0.,0.,-1.));
#169=DIRECTION('',(-1.,0.,0.));
#170=DIRECTION('',(0.,0.,-1.));
#171=DIRECTION('',(1.,0.,0.));
#172=DIRECTION('',(0.,0.,1.));
#173=DIRECTION('',(-1.,0.,0.));
#174=DIRECTION('',(0.,0.,1.));
#175=DIRECTION('',(0.,0.,1.));
#176=DIRECTION('',(1.,0.,0.));
#177=DIRECTION('',(0.,0.,1.));
#178=DIRECTION('',(0.,0.,1.));
#179=DIRECTION('',(-1.,0.,0.));
#180=DIRECTION('',(0.,0.,1.));
#181=DIRECTION('',(-1.,0.,0.));
#182=DIRECTION('',(0.,0.,1.));
#183=DIRECTION('',(-1.,0.,0.));
#184=DIRECTION('',(0.,0.,-1.));
#185=DIRECTION('',(-1.,0.,0.));
#186=DIRECTION('',(0.,0.,-1.));
#187=DIRECTION('',(1.,0.,0.));
#188=DIRECTION('',(0.,0.,1.));
#189=DIRECTION('',(-1.,0.,0.));
#190=DIRECTION('',(0.,0.,1.));
#191=DIRECTION('',(0.,0.,1.));
#192=DIRECTION('',(0.,0.,1.));
#193=DIRECTION('',(-1.,0.,0.));
#194=DIRECTION('',(0.,0.,1.));
#195=DIRECTION('',(-1.,0.,0.));
#196=CARTESIAN_POINT('',(0.,0.,0.));
#197=CARTESIAN_POINT('',(0.,0.,0.));
#198=CARTESIAN_POINT('',(0.,0.,0.));
#199=CARTESIAN_POINT('',(0.,0.,0.));
#200=CARTESIAN_POINT('',(0.,0.,0.));
#201=CARTESIAN_POINT('',(-7.,0.,0.));
#202=CARTESIAN_POINT('',(7.,0.,0.));
#203=CARTESIAN_POINT('',(0.,0.,0.));
#204=CARTESIAN_POINT('',(0.,0.,0.));
#205=CARTESIAN_POINT('',(-5.,0.,0.));
#206=CARTESIAN_POINT('',(5.,0.,0.));
#207=CARTESIAN_POINT('',(0.,0.,0.));
#208=CARTESIAN_POINT('',(0.,0.,0.));
#209=CARTESIAN_POINT('',(-7.,0.,0.));
#210=CARTESIAN_POINT('',(-7.,0.,1.));
#211=CARTESIAN_POINT('',(0.,0.,1.));
#212=CARTESIAN_POINT('',(7.,0.,1.));
#213=CARTESIAN_POINT('',(7.,0.,0.));
#214=CARTESIAN_POINT('',(0.,0.,0.));
#215=CARTESIAN_POINT('',(0.,0.,1.));
#216=CARTESIAN_POINT('',(0.,0.,0.));
#217=CARTESIAN_POINT('',(0.,0.,1.));
#218=CARTESIAN_POINT('',(-5.,0.,1.));
#219=CARTESIAN_POINT('',(5.,0.,1.));
#220=CARTESIAN_POINT('',(0.,0.,1.));
#221=CARTESIAN_POINT('',(0.,0.,1.));
#222=CARTESIAN_POINT('',(-5.,0.,0.));
#223=CARTESIAN_POINT('',(5.,0.,0.));
#224=CARTESIAN_POINT('',(0.,0.,0.));
#225=CARTESIAN_POINT('',(0.,0.,0.));
#226=MECHANICAL_DESIGN_GEOMETRIC_PRESENTATION_REPRESENTATION('',(#130,#131,
#132,#133),#227);
#227=(
GEOMETRIC_REPRESENTATION_CONTEXT(3)
GLOBAL_UNCERTAINTY_ASSIGNED_CONTEXT((#228))
GLOBAL_UNIT_ASSIGNED_CONTEXT((#234,#230,#229))
REPRESENTATION_CONTEXT('WA-M10','TOP_LEVEL_ASSEMBLY_PART')
);
#228=UNCERTAINTY_MEASURE_WITH_UNIT(LENGTH_MEASURE(2.E-5),#234,
'DISTANCE_ACCURACY_VALUE','Maximum Tolerance applied to model');
#229=(
NAMED_UNIT(*)
SI_UNIT($,.STERADIAN.)
SOLID_ANGLE_UNIT()
);
#230=(
CONVERSION_BASED_UNIT('DEGREE',#232)
NAMED_UNIT(#231)
PLANE_ANGLE_UNIT()
);
#231=DIMENSIONAL_EXPONENTS(0.,0.,0.,0.,0.,0.,0.);
#232=PLANE_ANGLE_MEASURE_WITH_UNIT(PLANE_ANGLE_MEASURE(0.0174532925),#233);
#233=(
NAMED_UNIT(*)
PLANE_ANGLE_UNIT()
SI_UNIT($,.RADIAN.)
);
#234=(
LENGTH_UNIT()
NAMED_UNIT(*)
SI_UNIT(.MILLI.,.METRE.)
);
ENDSEC;
END-ISO-10303-21;
