ISO-10303-21;
HEADER;
/* Generated by software containing ST-Developer
 * from STEP Tools, Inc. (www.steptools.com) 
 */
/* OPTION: using custom schema-name function */

FILE_DESCRIPTION(
/* description */ (''),
/* implementation_level */ '2;1');

FILE_NAME(
/* name */ 'GWW04038.stp',
/* time_stamp */ '2022-02-03T10:43:29+09:00',
/* author */ (''),
/* organization */ (''),
/* preprocessor_version */ 'ST-DEVELOPER v16',
/* originating_system */ 'SIEMENS PLM Software NX 10.0',
/* authorisation */ '');

FILE_SCHEMA (('AUTOMOTIVE_DESIGN { 1 0 10303 214 3 1 1 1 }'));
ENDSEC;

DATA;
#10=CONSTRUCTIVE_GEOMETRY_REPRESENTATION_RELATIONSHIP(
'supplemental geometry','',#26,#11);
#11=CONSTRUCTIVE_GEOMETRY_REPRESENTATION('supplemental geometry',(#324,
#325),#559);
#12=GEOMETRICALLY_BOUNDED_WIREFRAME_SHAPE_REPRESENTATION(
'GWW04038-None',(#27),#559);
#13=SHAPE_REPRESENTATION_RELATIONSHIP('None',
'relationship between GWW04038-None and GWW04038-None',#26,#15);
#14=SHAPE_REPRESENTATION_RELATIONSHIP('None',
'relationship between GWW04038-None and GWW04038-None',#26,#12);
#15=ADVANCED_BREP_SHAPE_REPRESENTATION('GWW04038-None',(#33),#559);
#16=SHAPE_DEFINITION_REPRESENTATION(#17,#26);
#17=PRODUCT_DEFINITION_SHAPE('','',#18);
#18=PRODUCT_DEFINITION('part definition','',#20,#19);
#19=PRODUCT_DEFINITION_CONTEXT('part definition',#25,'design');
#20=PRODUCT_DEFINITION_FORMATION_WITH_SPECIFIED_SOURCE(' ',' ',#22,
 .NOT_KNOWN.);
#21=PRODUCT_RELATED_PRODUCT_CATEGORY('part','',(#22));
#22=PRODUCT('GWW04038','GWW04038','NOT SPECIFIED',(#23));
#23=PRODUCT_CONTEXT('',#25,'mechanical');
#24=APPLICATION_PROTOCOL_DEFINITION('international standard',
'automotive_design',2010,#25);
#25=APPLICATION_CONTEXT(
'core data for automotive mechanical design processes');
#26=SHAPE_REPRESENTATION('GWW04038-None',(#323),#559);
#27=GEOMETRIC_CURVE_SET('None',(#476));
#28=SURFACE_STYLE_USAGE(.BOTH.,#29);
#29=SURFACE_SIDE_STYLE('',(#30));
#30=SURFACE_STYLE_FILL_AREA(#31);
#31=FILL_AREA_STYLE('',(#32));
#32=FILL_AREA_STYLE_COLOUR('',#306);
#33=MANIFOLD_SOLID_BREP('',#34);
#34=CLOSED_SHELL('',(#54,#55,#56,#57,#58,#59,#60,#61,#62,#63,#64,#65,#66,
#67,#68,#69,#70,#71,#72));
#35=CONICAL_SURFACE('',#346,6.3,88.);
#36=CONICAL_SURFACE('',#348,6.3,88.);
#37=CONICAL_SURFACE('',#353,6.9,45.);
#38=CONICAL_SURFACE('',#355,6.9,45.);
#39=CONICAL_SURFACE('',#361,6.5,45.);
#40=CONICAL_SURFACE('',#363,6.5,45.);
#41=CONICAL_SURFACE('',#367,2.249999999993,45.);
#42=CONICAL_SURFACE('',#368,2.249999999993,45.);
#43=TOROIDAL_SURFACE('',#338,5.8,0.2);
#44=TOROIDAL_SURFACE('',#344,5.8,0.2);
#45=PLANE('',#334);
#46=PLANE('',#351);
#47=PLANE('',#366);
#48=FACE_BOUND('',#97,.T.);
#49=FACE_BOUND('',#98,.T.);
#50=FACE_BOUND('',#105,.T.);
#51=FACE_BOUND('',#106,.T.);
#52=FACE_BOUND('',#113,.T.);
#53=FACE_BOUND('',#114,.T.);
#54=ADVANCED_FACE('',(#79),#73,.F.);
#55=ADVANCED_FACE('',(#80),#74,.F.);
#56=ADVANCED_FACE('',(#48,#49),#45,.T.);
#57=ADVANCED_FACE('',(#81),#43,.F.);
#58=ADVANCED_FACE('',(#82),#75,.F.);
#59=ADVANCED_FACE('',(#83),#76,.F.);
#60=ADVANCED_FACE('',(#84),#44,.F.);
#61=ADVANCED_FACE('',(#85),#35,.F.);
#62=ADVANCED_FACE('',(#86),#36,.F.);
#63=ADVANCED_FACE('',(#50,#51),#46,.T.);
#64=ADVANCED_FACE('',(#87),#37,.T.);
#65=ADVANCED_FACE('',(#88),#38,.T.);
#66=ADVANCED_FACE('',(#89),#77,.T.);
#67=ADVANCED_FACE('',(#90),#78,.T.);
#68=ADVANCED_FACE('',(#91),#39,.T.);
#69=ADVANCED_FACE('',(#92),#40,.T.);
#70=ADVANCED_FACE('',(#52,#53),#47,.F.);
#71=ADVANCED_FACE('',(#93),#41,.F.);
#72=ADVANCED_FACE('',(#94),#42,.F.);
#73=CYLINDRICAL_SURFACE('',#328,2.);
#74=CYLINDRICAL_SURFACE('',#331,2.);
#75=CYLINDRICAL_SURFACE('',#340,6.);
#76=CYLINDRICAL_SURFACE('',#343,6.);
#77=CYLINDRICAL_SURFACE('',#357,7.);
#78=CYLINDRICAL_SURFACE('',#359,7.);
#79=FACE_OUTER_BOUND('',#95,.T.);
#80=FACE_OUTER_BOUND('',#96,.T.);
#81=FACE_OUTER_BOUND('',#99,.T.);
#82=FACE_OUTER_BOUND('',#100,.T.);
#83=FACE_OUTER_BOUND('',#101,.T.);
#84=FACE_OUTER_BOUND('',#102,.T.);
#85=FACE_OUTER_BOUND('',#103,.T.);
#86=FACE_OUTER_BOUND('',#104,.T.);
#87=FACE_OUTER_BOUND('',#107,.T.);
#88=FACE_OUTER_BOUND('',#108,.T.);
#89=FACE_OUTER_BOUND('',#109,.T.);
#90=FACE_OUTER_BOUND('',#110,.T.);
#91=FACE_OUTER_BOUND('',#111,.T.);
#92=FACE_OUTER_BOUND('',#112,.T.);
#93=FACE_OUTER_BOUND('',#115,.T.);
#94=FACE_OUTER_BOUND('',#116,.T.);
#95=EDGE_LOOP('',(#145,#146,#147,#148));
#96=EDGE_LOOP('',(#149,#150,#151,#152));
#97=EDGE_LOOP('',(#153,#154));
#98=EDGE_LOOP('',(#155,#156));
#99=EDGE_LOOP('',(#157,#158,#159,#160));
#100=EDGE_LOOP('',(#161,#162,#163,#164));
#101=EDGE_LOOP('',(#165,#166,#167,#168));
#102=EDGE_LOOP('',(#169,#170,#171,#172));
#103=EDGE_LOOP('',(#173,#174,#175,#176));
#104=EDGE_LOOP('',(#177,#178,#179,#180));
#105=EDGE_LOOP('',(#181,#182));
#106=EDGE_LOOP('',(#183,#184));
#107=EDGE_LOOP('',(#185,#186,#187,#188));
#108=EDGE_LOOP('',(#189,#190,#191,#192));
#109=EDGE_LOOP('',(#193,#194,#195,#196));
#110=EDGE_LOOP('',(#197,#198,#199,#200));
#111=EDGE_LOOP('',(#201,#202,#203,#204));
#112=EDGE_LOOP('',(#205,#206,#207,#208));
#113=EDGE_LOOP('',(#209,#210));
#114=EDGE_LOOP('',(#211,#212));
#115=EDGE_LOOP('',(#213,#214,#215,#216));
#116=EDGE_LOOP('',(#217,#218,#219,#220));
#117=LINE('',#482,#131);
#118=LINE('',#486,#132);
#119=LINE('',#502,#133);
#120=LINE('',#506,#134);
#121=LINE('',#515,#135);
#122=LINE('',#516,#136);
#123=LINE('',#528,#137);
#124=LINE('',#529,#138);
#125=LINE('',#533,#139);
#126=LINE('',#537,#140);
#127=LINE('',#544,#141);
#128=LINE('',#545,#142);
#129=LINE('',#554,#143);
#130=LINE('',#555,#144);
#131=VECTOR('',#377,1.);
#132=VECTOR('',#380,1.);
#133=VECTOR('',#403,1.);
#134=VECTOR('',#406,1.);
#135=VECTOR('',#419,1.);
#136=VECTOR('',#420,1.);
#137=VECTOR('',#435,1.);
#138=VECTOR('',#436,1.);
#139=VECTOR('',#443,1.);
#140=VECTOR('',#446,1.);
#141=VECTOR('',#455,1.);
#142=VECTOR('',#456,1.);
#143=VECTOR('',#469,1.);
#144=VECTOR('',#470,1.);
#145=ORIENTED_EDGE('',*,*,#243,.T.);
#146=ORIENTED_EDGE('',*,*,#244,.T.);
#147=ORIENTED_EDGE('',*,*,#245,.T.);
#148=ORIENTED_EDGE('',*,*,#246,.F.);
#149=ORIENTED_EDGE('',*,*,#247,.T.);
#150=ORIENTED_EDGE('',*,*,#244,.F.);
#151=ORIENTED_EDGE('',*,*,#248,.F.);
#152=ORIENTED_EDGE('',*,*,#246,.T.);
#153=ORIENTED_EDGE('',*,*,#249,.T.);
#154=ORIENTED_EDGE('',*,*,#250,.T.);
#155=ORIENTED_EDGE('',*,*,#243,.F.);
#156=ORIENTED_EDGE('',*,*,#248,.T.);
#157=ORIENTED_EDGE('',*,*,#251,.F.);
#158=ORIENTED_EDGE('',*,*,#250,.F.);
#159=ORIENTED_EDGE('',*,*,#252,.T.);
#160=ORIENTED_EDGE('',*,*,#253,.T.);
#161=ORIENTED_EDGE('',*,*,#253,.F.);
#162=ORIENTED_EDGE('',*,*,#254,.T.);
#163=ORIENTED_EDGE('',*,*,#255,.F.);
#164=ORIENTED_EDGE('',*,*,#256,.F.);
#165=ORIENTED_EDGE('',*,*,#257,.T.);
#166=ORIENTED_EDGE('',*,*,#254,.F.);
#167=ORIENTED_EDGE('',*,*,#258,.F.);
#168=ORIENTED_EDGE('',*,*,#256,.T.);
#169=ORIENTED_EDGE('',*,*,#252,.F.);
#170=ORIENTED_EDGE('',*,*,#249,.F.);
#171=ORIENTED_EDGE('',*,*,#251,.T.);
#172=ORIENTED_EDGE('',*,*,#258,.T.);
#173=ORIENTED_EDGE('',*,*,#259,.T.);
#174=ORIENTED_EDGE('',*,*,#260,.T.);
#175=ORIENTED_EDGE('',*,*,#257,.F.);
#176=ORIENTED_EDGE('',*,*,#261,.F.);
#177=ORIENTED_EDGE('',*,*,#255,.T.);
#178=ORIENTED_EDGE('',*,*,#260,.F.);
#179=ORIENTED_EDGE('',*,*,#262,.F.);
#180=ORIENTED_EDGE('',*,*,#261,.T.);
#181=ORIENTED_EDGE('',*,*,#263,.F.);
#182=ORIENTED_EDGE('',*,*,#264,.T.);
#183=ORIENTED_EDGE('',*,*,#259,.F.);
#184=ORIENTED_EDGE('',*,*,#262,.T.);
#185=ORIENTED_EDGE('',*,*,#265,.T.);
#186=ORIENTED_EDGE('',*,*,#266,.T.);
#187=ORIENTED_EDGE('',*,*,#264,.F.);
#188=ORIENTED_EDGE('',*,*,#267,.F.);
#189=ORIENTED_EDGE('',*,*,#263,.T.);
#190=ORIENTED_EDGE('',*,*,#266,.F.);
#191=ORIENTED_EDGE('',*,*,#268,.F.);
#192=ORIENTED_EDGE('',*,*,#267,.T.);
#193=ORIENTED_EDGE('',*,*,#268,.T.);
#194=ORIENTED_EDGE('',*,*,#269,.T.);
#195=ORIENTED_EDGE('',*,*,#270,.F.);
#196=ORIENTED_EDGE('',*,*,#271,.F.);
#197=ORIENTED_EDGE('',*,*,#272,.T.);
#198=ORIENTED_EDGE('',*,*,#269,.F.);
#199=ORIENTED_EDGE('',*,*,#265,.F.);
#200=ORIENTED_EDGE('',*,*,#271,.T.);
#201=ORIENTED_EDGE('',*,*,#273,.T.);
#202=ORIENTED_EDGE('',*,*,#274,.T.);
#203=ORIENTED_EDGE('',*,*,#272,.F.);
#204=ORIENTED_EDGE('',*,*,#275,.F.);
#205=ORIENTED_EDGE('',*,*,#270,.T.);
#206=ORIENTED_EDGE('',*,*,#274,.F.);
#207=ORIENTED_EDGE('',*,*,#276,.F.);
#208=ORIENTED_EDGE('',*,*,#275,.T.);
#209=ORIENTED_EDGE('',*,*,#273,.F.);
#210=ORIENTED_EDGE('',*,*,#276,.T.);
#211=ORIENTED_EDGE('',*,*,#277,.F.);
#212=ORIENTED_EDGE('',*,*,#278,.F.);
#213=ORIENTED_EDGE('',*,*,#279,.F.);
#214=ORIENTED_EDGE('',*,*,#278,.T.);
#215=ORIENTED_EDGE('',*,*,#280,.T.);
#216=ORIENTED_EDGE('',*,*,#247,.F.);
#217=ORIENTED_EDGE('',*,*,#280,.F.);
#218=ORIENTED_EDGE('',*,*,#277,.T.);
#219=ORIENTED_EDGE('',*,*,#279,.T.);
#220=ORIENTED_EDGE('',*,*,#245,.F.);
#221=VERTEX_POINT('',#480);
#222=VERTEX_POINT('',#481);
#223=VERTEX_POINT('',#483);
#224=VERTEX_POINT('',#485);
#225=VERTEX_POINT('',#492);
#226=VERTEX_POINT('',#493);
#227=VERTEX_POINT('',#497);
#228=VERTEX_POINT('',#499);
#229=VERTEX_POINT('',#503);
#230=VERTEX_POINT('',#505);
#231=VERTEX_POINT('',#513);
#232=VERTEX_POINT('',#514);
#233=VERTEX_POINT('',#521);
#234=VERTEX_POINT('',#522);
#235=VERTEX_POINT('',#526);
#236=VERTEX_POINT('',#527);
#237=VERTEX_POINT('',#534);
#238=VERTEX_POINT('',#536);
#239=VERTEX_POINT('',#542);
#240=VERTEX_POINT('',#543);
#241=VERTEX_POINT('',#550);
#242=VERTEX_POINT('',#551);
#243=EDGE_CURVE('',#221,#222,#281,.T.);
#244=EDGE_CURVE('',#222,#223,#117,.T.);
#245=EDGE_CURVE('',#223,#224,#282,.T.);
#246=EDGE_CURVE('',#221,#224,#118,.T.);
#247=EDGE_CURVE('',#224,#223,#283,.T.);
#248=EDGE_CURVE('',#221,#222,#284,.T.);
#249=EDGE_CURVE('',#225,#226,#285,.T.);
#250=EDGE_CURVE('',#226,#225,#286,.T.);
#251=EDGE_CURVE('',#225,#227,#287,.T.);
#252=EDGE_CURVE('',#226,#228,#288,.T.);
#253=EDGE_CURVE('',#228,#227,#289,.T.);
#254=EDGE_CURVE('',#228,#229,#119,.T.);
#255=EDGE_CURVE('',#230,#229,#290,.T.);
#256=EDGE_CURVE('',#227,#230,#120,.T.);
#257=EDGE_CURVE('',#230,#229,#291,.T.);
#258=EDGE_CURVE('',#227,#228,#292,.T.);
#259=EDGE_CURVE('',#231,#232,#293,.T.);
#260=EDGE_CURVE('',#232,#229,#121,.T.);
#261=EDGE_CURVE('',#231,#230,#122,.T.);
#262=EDGE_CURVE('',#231,#232,#294,.T.);
#263=EDGE_CURVE('',#233,#234,#295,.T.);
#264=EDGE_CURVE('',#233,#234,#296,.T.);
#265=EDGE_CURVE('',#235,#236,#297,.T.);
#266=EDGE_CURVE('',#236,#234,#123,.T.);
#267=EDGE_CURVE('',#235,#233,#124,.T.);
#268=EDGE_CURVE('',#235,#236,#298,.T.);
#269=EDGE_CURVE('',#236,#237,#125,.T.);
#270=EDGE_CURVE('',#238,#237,#299,.T.);
#271=EDGE_CURVE('',#235,#238,#126,.T.);
#272=EDGE_CURVE('',#238,#237,#300,.T.);
#273=EDGE_CURVE('',#239,#240,#301,.T.);
#274=EDGE_CURVE('',#240,#237,#127,.T.);
#275=EDGE_CURVE('',#239,#238,#128,.T.);
#276=EDGE_CURVE('',#239,#240,#302,.T.);
#277=EDGE_CURVE('',#241,#242,#303,.T.);
#278=EDGE_CURVE('',#242,#241,#304,.T.);
#279=EDGE_CURVE('',#242,#224,#129,.T.);
#280=EDGE_CURVE('',#241,#223,#130,.T.);
#281=CIRCLE('',#326,2.);
#282=CIRCLE('',#327,2.);
#283=CIRCLE('',#329,2.);
#284=CIRCLE('',#330,2.);
#285=CIRCLE('',#332,5.8);
#286=CIRCLE('',#333,5.8);
#287=CIRCLE('',#335,0.2);
#288=CIRCLE('',#336,0.2);
#289=CIRCLE('',#337,6.);
#290=CIRCLE('',#339,6.);
#291=CIRCLE('',#341,6.);
#292=CIRCLE('',#342,6.);
#293=CIRCLE('',#345,6.6);
#294=CIRCLE('',#347,6.6);
#295=CIRCLE('',#349,6.8);
#296=CIRCLE('',#350,6.8);
#297=CIRCLE('',#352,7.);
#298=CIRCLE('',#354,7.);
#299=CIRCLE('',#356,7.);
#300=CIRCLE('',#358,7.);
#301=CIRCLE('',#360,6.);
#302=CIRCLE('',#362,6.);
#303=CIRCLE('',#364,2.5);
#304=CIRCLE('',#365,2.5);
#305=COLOUR_RGB('Strong Stone',0.576470588235294,0.54508278019379,0.392156862745098);
#306=COLOUR_RGB('spare part',0.301960784313725,0.301960784313725,0.301960784313725);
#307=CURVE_STYLE('',#309,POSITIVE_LENGTH_MEASURE(0.13),#322);
#308=CURVE_STYLE('',#310,POSITIVE_LENGTH_MEASURE(0.13),#305);
#309=DRAUGHTING_PRE_DEFINED_CURVE_FONT('continuous');
#310=DRAUGHTING_PRE_DEFINED_CURVE_FONT('continuous');
#311=PRESENTATION_LAYER_ASSIGNMENT('1','Layer 1',(#476,#324,#325,#33));
#312=STYLED_ITEM('',(#316),#476);
#313=STYLED_ITEM('',(#317),#324);
#314=STYLED_ITEM('',(#318),#325);
#315=STYLED_ITEM('',(#319),#33);
#316=PRESENTATION_STYLE_ASSIGNMENT((#320));
#317=PRESENTATION_STYLE_ASSIGNMENT((#307));
#318=PRESENTATION_STYLE_ASSIGNMENT((#308));
#319=PRESENTATION_STYLE_ASSIGNMENT((#28));
#320=POINT_STYLE('',#321,POSITIVE_LENGTH_MEASURE(3.),#322);
#321=PRE_DEFINED_POINT_MARKER_SYMBOL('plus');
#322=DRAUGHTING_PRE_DEFINED_COLOUR('yellow');
#323=AXIS2_PLACEMENT_3D('',#475,#369,#370);
#324=AXIS2_PLACEMENT_3D('PCS',#477,#371,#372);
#325=AXIS2_PLACEMENT_3D('',#478,#373,#374);
#326=AXIS2_PLACEMENT_3D('',#479,#375,#376);
#327=AXIS2_PLACEMENT_3D('',#484,#378,#379);
#328=AXIS2_PLACEMENT_3D('',#487,#381,#382);
#329=AXIS2_PLACEMENT_3D('',#488,#383,#384);
#330=AXIS2_PLACEMENT_3D('',#489,#385,#386);
#331=AXIS2_PLACEMENT_3D('',#490,#387,#388);
#332=AXIS2_PLACEMENT_3D('',#491,#389,#390);
#333=AXIS2_PLACEMENT_3D('',#494,#391,#392);
#334=AXIS2_PLACEMENT_3D('',#495,#393,#394);
#335=AXIS2_PLACEMENT_3D('',#496,#395,#396);
#336=AXIS2_PLACEMENT_3D('',#498,#397,#398);
#337=AXIS2_PLACEMENT_3D('',#500,#399,#400);
#338=AXIS2_PLACEMENT_3D('',#501,#401,#402);
#339=AXIS2_PLACEMENT_3D('',#504,#404,#405);
#340=AXIS2_PLACEMENT_3D('',#507,#407,#408);
#341=AXIS2_PLACEMENT_3D('',#508,#409,#410);
#342=AXIS2_PLACEMENT_3D('',#509,#411,#412);
#343=AXIS2_PLACEMENT_3D('',#510,#413,#414);
#344=AXIS2_PLACEMENT_3D('',#511,#415,#416);
#345=AXIS2_PLACEMENT_3D('',#512,#417,#418);
#346=AXIS2_PLACEMENT_3D('',#517,#421,#422);
#347=AXIS2_PLACEMENT_3D('',#518,#423,#424);
#348=AXIS2_PLACEMENT_3D('',#519,#425,#426);
#349=AXIS2_PLACEMENT_3D('',#520,#427,#428);
#350=AXIS2_PLACEMENT_3D('',#523,#429,#430);
#351=AXIS2_PLACEMENT_3D('',#524,#431,#432);
#352=AXIS2_PLACEMENT_3D('',#525,#433,#434);
#353=AXIS2_PLACEMENT_3D('',#530,#437,#438);
#354=AXIS2_PLACEMENT_3D('',#531,#439,#440);
#355=AXIS2_PLACEMENT_3D('',#532,#441,#442);
#356=AXIS2_PLACEMENT_3D('',#535,#444,#445);
#357=AXIS2_PLACEMENT_3D('',#538,#447,#448);
#358=AXIS2_PLACEMENT_3D('',#539,#449,#450);
#359=AXIS2_PLACEMENT_3D('',#540,#451,#452);
#360=AXIS2_PLACEMENT_3D('',#541,#453,#454);
#361=AXIS2_PLACEMENT_3D('',#546,#457,#458);
#362=AXIS2_PLACEMENT_3D('',#547,#459,#460);
#363=AXIS2_PLACEMENT_3D('',#548,#461,#462);
#364=AXIS2_PLACEMENT_3D('',#549,#463,#464);
#365=AXIS2_PLACEMENT_3D('',#552,#465,#466);
#366=AXIS2_PLACEMENT_3D('',#553,#467,#468);
#367=AXIS2_PLACEMENT_3D('',#556,#471,#472);
#368=AXIS2_PLACEMENT_3D('',#557,#473,#474);
#369=DIRECTION('',(0.,0.,1.));
#370=DIRECTION('',(1.,0.,0.));
#371=DIRECTION('',(0.,0.,1.));
#372=DIRECTION('',(1.,0.,0.));
#373=DIRECTION('',(0.,0.,1.));
#374=DIRECTION('',(1.,0.,0.));
#375=DIRECTION('',(0.,0.,1.));
#376=DIRECTION('',(1.,0.,0.));
#377=DIRECTION('',(4.369689795207E-12,2.377267391451E-11,-1.));
#378=DIRECTION('',(0.,0.,-1.));
#379=DIRECTION('',(-1.,0.,0.));
#380=DIRECTION('',(-4.369689795207E-12,-2.377320924174E-11,-1.));
#381=DIRECTION('',(0.,0.,1.));
#382=DIRECTION('',(1.,0.,0.));
#383=DIRECTION('',(0.,0.,-1.));
#384=DIRECTION('',(1.,0.,0.));
#385=DIRECTION('',(0.,0.,-1.));
#386=DIRECTION('',(1.,0.,0.));
#387=DIRECTION('',(0.,0.,1.));
#388=DIRECTION('',(1.,0.,0.));
#389=DIRECTION('',(0.,0.,1.));
#390=DIRECTION('',(1.,0.,0.));
#391=DIRECTION('',(0.,0.,1.));
#392=DIRECTION('',(-1.,0.,0.));
#393=DIRECTION('',(0.,0.,1.));
#394=DIRECTION('',(1.,0.,0.));
#395=DIRECTION('',(-1.724792184077E-14,-1.,0.));
#396=DIRECTION('',(0.999999999999998,-1.724792184077E-14,0.));
#397=DIRECTION('',(1.712475647397E-14,1.,0.));
#398=DIRECTION('',(-0.999999999999998,1.712475647397E-14,0.));
#399=DIRECTION('',(0.,0.,1.));
#400=DIRECTION('',(-1.,0.,0.));
#401=DIRECTION('',(0.,0.,1.));
#402=DIRECTION('',(0.99999639162969,-0.00268639676882397,0.));
#403=DIRECTION('',(0.,0.,1.));
#404=DIRECTION('',(0.,0.,-1.));
#405=DIRECTION('',(1.,0.,0.));
#406=DIRECTION('',(0.,0.,1.));
#407=DIRECTION('',(0.,0.,1.));
#408=DIRECTION('',(1.,0.,0.));
#409=DIRECTION('',(0.,0.,1.));
#410=DIRECTION('',(1.,0.,0.));
#411=DIRECTION('',(0.,0.,1.));
#412=DIRECTION('',(1.,0.,0.));
#413=DIRECTION('',(0.,0.,1.));
#414=DIRECTION('',(1.,0.,0.));
#415=DIRECTION('',(0.,0.,1.));
#416=DIRECTION('',(-0.99999639162969,0.00268639676882397,0.));
#417=DIRECTION('',(0.,0.,1.));
#418=DIRECTION('',(1.,0.,0.));
#419=DIRECTION('',(0.999390827019096,0.,-0.0348994967024999));
#420=DIRECTION('',(-0.999390827019096,0.,-0.0348994967024999));
#421=DIRECTION('',(0.,0.,1.));
#422=DIRECTION('',(1.,0.,3.22506252090534E-18));
#423=DIRECTION('',(0.,0.,-1.));
#424=DIRECTION('',(1.,0.,0.));
#425=DIRECTION('',(0.,0.,1.));
#426=DIRECTION('',(1.,0.,3.22506252090534E-18));
#427=DIRECTION('',(0.,0.,-1.));
#428=DIRECTION('',(1.,0.,0.));
#429=DIRECTION('',(0.,0.,1.));
#430=DIRECTION('',(1.,0.,0.));
#431=DIRECTION('',(0.,0.,1.));
#432=DIRECTION('',(1.,0.,0.));
#433=DIRECTION('',(0.,0.,1.));
#434=DIRECTION('',(1.,0.,0.));
#435=DIRECTION('',(0.707106781186547,0.,0.707106781186547));
#436=DIRECTION('',(-0.707106781186547,0.,0.707106781186547));
#437=DIRECTION('',(0.,0.,-1.));
#438=DIRECTION('',(-1.,0.,3.61795540724133E-17));
#439=DIRECTION('',(0.,0.,-1.));
#440=DIRECTION('',(1.,0.,0.));
#441=DIRECTION('',(0.,0.,-1.));
#442=DIRECTION('',(-1.,0.,3.61795540724133E-17));
#443=DIRECTION('',(0.,0.,-1.));
#444=DIRECTION('',(0.,0.,-1.));
#445=DIRECTION('',(1.,0.,0.));
#446=DIRECTION('',(0.,0.,-1.));
#447=DIRECTION('',(0.,0.,1.));
#448=DIRECTION('',(1.,0.,0.));
#449=DIRECTION('',(0.,0.,1.));
#450=DIRECTION('',(1.,0.,0.));
#451=DIRECTION('',(0.,0.,1.));
#452=DIRECTION('',(1.,0.,0.));
#453=DIRECTION('',(0.,0.,1.));
#454=DIRECTION('',(1.,0.,0.));
#455=DIRECTION('',(-0.707106781186547,0.,0.707106781186547));
#456=DIRECTION('',(0.707106781186547,0.,0.707106781186547));
#457=DIRECTION('',(0.,0.,1.));
#458=DIRECTION('',(1.,0.,-5.47217788000632E-17));
#459=DIRECTION('',(0.,0.,-1.));
#460=DIRECTION('',(1.,0.,0.));
#461=DIRECTION('',(0.,0.,1.));
#462=DIRECTION('',(1.,0.,-5.47217788000632E-17));
#463=DIRECTION('',(0.,0.,-1.));
#464=DIRECTION('',(-1.,0.,0.));
#465=DIRECTION('',(0.,0.,-1.));
#466=DIRECTION('',(1.,0.,0.));
#467=DIRECTION('',(0.,0.,1.));
#468=DIRECTION('',(1.,0.,0.));
#469=DIRECTION('',(-0.707106781186547,3.36205094862722E-11,0.707106781186547));
#470=DIRECTION('',(0.707106781186547,-3.36201516063322E-11,0.707106781186547));
#471=DIRECTION('',(0.,0.,-1.));
#472=DIRECTION('',(-1.,0.,-3.3048018328194E-17));
#473=DIRECTION('',(0.,0.,-1.));
#474=DIRECTION('',(-1.,0.,-3.3048018328194E-17));
#475=CARTESIAN_POINT('',(0.,0.,0.));
#476=CARTESIAN_POINT('',(0.,0.,0.));
#477=CARTESIAN_POINT('',(0.,0.,0.));
#478=CARTESIAN_POINT('',(0.,0.,0.));
#479=CARTESIAN_POINT('',(0.,0.,2.));
#480=CARTESIAN_POINT('',(2.,0.,2.));
#481=CARTESIAN_POINT('',(-2.,0.,2.));
#482=CARTESIAN_POINT('',(-1.999999999993,3.565884758536E-11,0.5000000000066));
#483=CARTESIAN_POINT('',(-1.999999999993,3.565884758536E-11,0.5000000000066));
#484=CARTESIAN_POINT('',(0.,0.,0.5));
#485=CARTESIAN_POINT('',(1.999999999993,-3.565965057621E-11,0.5000000000066));
#486=CARTESIAN_POINT('',(1.999999999993,-3.565965057621E-11,0.5000000000066));
#487=CARTESIAN_POINT('',(0.,0.,-0.19));
#488=CARTESIAN_POINT('',(0.,0.,0.5));
#489=CARTESIAN_POINT('',(0.,0.,2.));
#490=CARTESIAN_POINT('',(0.,0.,-0.19));
#491=CARTESIAN_POINT('',(0.,0.,2.));
#492=CARTESIAN_POINT('',(5.8,0.,2.));
#493=CARTESIAN_POINT('',(-5.8,0.,2.));
#494=CARTESIAN_POINT('',(0.,0.,2.));
#495=CARTESIAN_POINT('',(0.,0.,2.));
#496=CARTESIAN_POINT('',(5.8,-1.000380334126E-13,2.2));
#497=CARTESIAN_POINT('',(6.,0.,2.2));
#498=CARTESIAN_POINT('',(-5.8,9.932159261705E-14,2.2));
#499=CARTESIAN_POINT('',(-6.,0.,2.2));
#500=CARTESIAN_POINT('',(0.,0.,2.2));
#501=CARTESIAN_POINT('',(0.,0.,2.2));
#502=CARTESIAN_POINT('',(-6.,0.,2.2));
#503=CARTESIAN_POINT('',(-6.,0.,3.779047538305));
#504=CARTESIAN_POINT('',(0.,0.,3.779047538305));
#505=CARTESIAN_POINT('',(6.,0.,3.779047538305));
#506=CARTESIAN_POINT('',(6.,0.,2.2));
#507=CARTESIAN_POINT('',(0.,0.,-0.19));
#508=CARTESIAN_POINT('',(0.,0.,3.779047538305));
#509=CARTESIAN_POINT('',(0.,0.,2.2));
#510=CARTESIAN_POINT('',(0.,0.,-0.19));
#511=CARTESIAN_POINT('',(0.,0.,2.2));
#512=CARTESIAN_POINT('',(0.,0.,3.8));
#513=CARTESIAN_POINT('',(6.6,0.,3.8));
#514=CARTESIAN_POINT('',(-6.6,0.,3.8));
#515=CARTESIAN_POINT('',(-6.,0.,3.779047538305));
#516=CARTESIAN_POINT('',(6.,0.,3.779047538305));
#517=CARTESIAN_POINT('',(0.,0.,3.789523769152));
#518=CARTESIAN_POINT('',(0.,0.,3.8));
#519=CARTESIAN_POINT('',(0.,0.,3.789523769152));
#520=CARTESIAN_POINT('',(0.,0.,3.8));
#521=CARTESIAN_POINT('',(6.8,0.,3.8));
#522=CARTESIAN_POINT('',(-6.8,0.,3.8));
#523=CARTESIAN_POINT('',(0.,0.,3.8));
#524=CARTESIAN_POINT('',(0.,0.,3.8));
#525=CARTESIAN_POINT('',(0.,0.,3.6));
#526=CARTESIAN_POINT('',(7.,0.,3.6));
#527=CARTESIAN_POINT('',(-7.,0.,3.6));
#528=CARTESIAN_POINT('',(-6.8,0.,3.8));
#529=CARTESIAN_POINT('',(6.8,0.,3.8));
#530=CARTESIAN_POINT('',(0.,0.,3.7));
#531=CARTESIAN_POINT('',(0.,0.,3.6));
#532=CARTESIAN_POINT('',(0.,0.,3.7));
#533=CARTESIAN_POINT('',(-7.,0.,3.6));
#534=CARTESIAN_POINT('',(-7.,0.,1.));
#535=CARTESIAN_POINT('',(0.,0.,1.));
#536=CARTESIAN_POINT('',(7.,0.,1.));
#537=CARTESIAN_POINT('',(7.,0.,3.6));
#538=CARTESIAN_POINT('',(0.,0.,-0.19));
#539=CARTESIAN_POINT('',(0.,0.,1.));
#540=CARTESIAN_POINT('',(0.,0.,-0.19));
#541=CARTESIAN_POINT('',(0.,0.,0.));
#542=CARTESIAN_POINT('',(6.,0.,0.));
#543=CARTESIAN_POINT('',(-6.,0.,0.));
#544=CARTESIAN_POINT('',(-7.,0.,1.));
#545=CARTESIAN_POINT('',(7.,0.,1.));
#546=CARTESIAN_POINT('',(0.,0.,0.5));
#547=CARTESIAN_POINT('',(0.,0.,0.));
#548=CARTESIAN_POINT('',(0.,0.,0.5));
#549=CARTESIAN_POINT('',(0.,0.,0.));
#550=CARTESIAN_POINT('',(-2.5,0.,0.));
#551=CARTESIAN_POINT('',(2.5,0.,0.));
#552=CARTESIAN_POINT('',(0.,0.,0.));
#553=CARTESIAN_POINT('',(0.,0.,0.));
#554=CARTESIAN_POINT('',(1.999999999993,-3.565965057621E-11,0.5000000000066));
#555=CARTESIAN_POINT('',(-1.999999999993,3.565884758536E-11,0.5000000000066));
#556=CARTESIAN_POINT('',(0.,0.,0.250000000007));
#557=CARTESIAN_POINT('',(0.,0.,0.250000000007));
#558=MECHANICAL_DESIGN_GEOMETRIC_PRESENTATION_REPRESENTATION('',(#312,#313,
#314,#315),#559);
#559=(
GEOMETRIC_REPRESENTATION_CONTEXT(3)
GLOBAL_UNCERTAINTY_ASSIGNED_CONTEXT((#560))
GLOBAL_UNIT_ASSIGNED_CONTEXT((#566,#562,#561))
REPRESENTATION_CONTEXT('GWW04038','TOP_LEVEL_ASSEMBLY_PART')
);
#560=UNCERTAINTY_MEASURE_WITH_UNIT(LENGTH_MEASURE(2.E-5),#566,
'DISTANCE_ACCURACY_VALUE','Maximum Tolerance applied to model');
#561=(
NAMED_UNIT(*)
SI_UNIT($,.STERADIAN.)
SOLID_ANGLE_UNIT()
);
#562=(
CONVERSION_BASED_UNIT('DEGREE',#564)
NAMED_UNIT(#563)
PLANE_ANGLE_UNIT()
);
#563=DIMENSIONAL_EXPONENTS(0.,0.,0.,0.,0.,0.,0.);
#564=PLANE_ANGLE_MEASURE_WITH_UNIT(PLANE_ANGLE_MEASURE(0.0174532925),#565);
#565=(
NAMED_UNIT(*)
PLANE_ANGLE_UNIT()
SI_UNIT($,.RADIAN.)
);
#566=(
LENGTH_UNIT()
NAMED_UNIT(*)
SI_UNIT(.MILLI.,.METRE.)
);
ENDSEC;
END-ISO-10303-21;
