ISO-10303-21;
HEADER;
/* Generated by software containing ST-Developer
 * from STEP Tools, Inc. (www.steptools.com) 
 */
/* OPTION: using custom schema-name function */

FILE_DESCRIPTION(
/* description */ (''),
/* implementation_level */ '2;1');

FILE_NAME(
/* name */ 'HSS06006G.stp',
/* time_stamp */ '2022-02-03T10:43:21+09:00',
/* author */ (''),
/* organization */ (''),
/* preprocessor_version */ 'ST-DEVELOPER v16',
/* originating_system */ 'SIEMENS PLM Software NX 10.0',
/* authorisation */ '');

FILE_SCHEMA (('AUTOMOTIVE_DESIGN { 1 0 10303 214 3 1 1 1 }'));
ENDSEC;

DATA;
#10=CONSTRUCTIVE_GEOMETRY_REPRESENTATION_RELATIONSHIP(
'supplemental geometry','',#26,#11);
#11=CONSTRUCTIVE_GEOMETRY_REPRESENTATION('supplemental geometry',(#323,
#324),#585);
#12=GEOMETRICALLY_BOUNDED_WIREFRAME_SHAPE_REPRESENTATION(
'HSS06006G-None',(#27),#585);
#13=SHAPE_REPRESENTATION_RELATIONSHIP('None',
'relationship between HSS06006G-None and HSS06006G-None',#26,#15);
#14=SHAPE_REPRESENTATION_RELATIONSHIP('None',
'relationship between HSS06006G-None and HSS06006G-None',#26,#12);
#15=ADVANCED_BREP_SHAPE_REPRESENTATION('HSS06006G-None',(#33),#585);
#16=SHAPE_DEFINITION_REPRESENTATION(#17,#26);
#17=PRODUCT_DEFINITION_SHAPE('','',#18);
#18=PRODUCT_DEFINITION('part definition','',#20,#19);
#19=PRODUCT_DEFINITION_CONTEXT('part definition',#25,'design');
#20=PRODUCT_DEFINITION_FORMATION_WITH_SPECIFIED_SOURCE(' ',' ',#22,
 .NOT_KNOWN.);
#21=PRODUCT_RELATED_PRODUCT_CATEGORY('part','',(#22));
#22=PRODUCT('HSS06006G','HSS06006G','NOT SPECIFIED',(#23));
#23=PRODUCT_CONTEXT('',#25,'mechanical');
#24=APPLICATION_PROTOCOL_DEFINITION('international standard',
'automotive_design',2010,#25);
#25=APPLICATION_CONTEXT(
'core data for automotive mechanical design processes');
#26=SHAPE_REPRESENTATION('HSS06006G-None',(#322),#585);
#27=GEOMETRIC_CURVE_SET('None',(#442));
#28=SURFACE_STYLE_USAGE(.BOTH.,#29);
#29=SURFACE_SIDE_STYLE('',(#30));
#30=SURFACE_STYLE_FILL_AREA(#31);
#31=FILL_AREA_STYLE('',(#32));
#32=FILL_AREA_STYLE_COLOUR('',#305);
#33=MANIFOLD_SOLID_BREP('',#34);
#34=CLOSED_SHELL('',(#59,#60,#61,#62,#63,#64,#65,#66,#67,#68,#69,#70,#71,
#72,#73,#74,#75,#76));
#35=SPHERICAL_SURFACE('',#348,4.);
#36=SPHERICAL_SURFACE('',#349,4.);
#37=B_SPLINE_CURVE_WITH_KNOTS('',3,(#480,#481,#482,#483,#484,#485,#486,
#487,#488,#489,#490),.UNSPECIFIED.,.F.,.F.,(4,1,1,1,1,1,1,1,4),(0.,0.125,
0.25,0.375,0.5,0.625,0.75,0.875,1.),.UNSPECIFIED.);
#38=B_SPLINE_CURVE_WITH_KNOTS('',3,(#494,#495,#496,#497,#498,#499,#500,
#501,#502,#503,#504),.UNSPECIFIED.,.F.,.F.,(4,1,1,1,1,1,1,1,4),(0.,0.125,
0.25,0.375,0.5,0.625,0.75,0.875,1.),.UNSPECIFIED.);
#39=B_SPLINE_CURVE_WITH_KNOTS('',3,(#508,#509,#510,#511,#512,#513,#514,
#515,#516,#517,#518),.UNSPECIFIED.,.F.,.F.,(4,1,1,1,1,1,1,1,4),(0.,0.125,
0.25,0.375,0.5,0.625,0.75,0.875,1.),.UNSPECIFIED.);
#40=B_SPLINE_CURVE_WITH_KNOTS('',3,(#522,#523,#524,#525,#526,#527,#528,
#529,#530,#531,#532),.UNSPECIFIED.,.F.,.F.,(4,1,1,1,1,1,1,1,4),(0.,0.125,
0.25,0.375,0.5,0.625,0.75,0.875,1.),.UNSPECIFIED.);
#41=B_SPLINE_CURVE_WITH_KNOTS('',3,(#536,#537,#538,#539,#540,#541,#542,
#543,#544,#545,#546),.UNSPECIFIED.,.F.,.F.,(4,1,1,1,1,1,1,1,4),(0.,0.125,
0.25,0.375,0.5,0.625,0.75,0.875,1.),.UNSPECIFIED.);
#42=B_SPLINE_CURVE_WITH_KNOTS('',3,(#550,#551,#552,#553,#554,#555,#556,
#557,#558,#559,#560),.UNSPECIFIED.,.F.,.F.,(4,1,1,1,1,1,1,1,4),(0.,0.125,
0.25,0.375,0.5,0.625,0.75,0.875,1.),.UNSPECIFIED.);
#43=PLANE('',#335);
#44=PLANE('',#336);
#45=PLANE('',#337);
#46=PLANE('',#338);
#47=PLANE('',#339);
#48=PLANE('',#340);
#49=PLANE('',#341);
#50=PLANE('',#354);
#51=FACE_BOUND('',#100,.T.);
#52=FACE_BOUND('',#101,.T.);
#53=CONICAL_SURFACE('',#332,2.625,60.);
#54=CONICAL_SURFACE('',#334,2.625,60.);
#55=CONICAL_SURFACE('',#343,1.460958984309,72.69448397083);
#56=CONICAL_SURFACE('',#345,1.460958984309,72.69448397083);
#57=CONICAL_SURFACE('',#351,2.625,45.);
#58=CONICAL_SURFACE('',#353,2.625,45.);
#59=ADVANCED_FACE('',(#79),#77,.T.);
#60=ADVANCED_FACE('',(#80),#78,.T.);
#61=ADVANCED_FACE('',(#81),#53,.T.);
#62=ADVANCED_FACE('',(#82),#54,.T.);
#63=ADVANCED_FACE('',(#51,#52),#43,.F.);
#64=ADVANCED_FACE('',(#83),#44,.F.);
#65=ADVANCED_FACE('',(#84),#45,.F.);
#66=ADVANCED_FACE('',(#85),#46,.F.);
#67=ADVANCED_FACE('',(#86),#47,.F.);
#68=ADVANCED_FACE('',(#87),#48,.F.);
#69=ADVANCED_FACE('',(#88),#49,.F.);
#70=ADVANCED_FACE('',(#89),#55,.F.);
#71=ADVANCED_FACE('',(#90),#56,.F.);
#72=ADVANCED_FACE('',(#91),#35,.F.);
#73=ADVANCED_FACE('',(#92),#36,.F.);
#74=ADVANCED_FACE('',(#93),#57,.T.);
#75=ADVANCED_FACE('',(#94),#58,.T.);
#76=ADVANCED_FACE('',(#95),#50,.T.);
#77=CYLINDRICAL_SURFACE('',#327,3.);
#78=CYLINDRICAL_SURFACE('',#330,3.);
#79=FACE_OUTER_BOUND('',#96,.T.);
#80=FACE_OUTER_BOUND('',#97,.T.);
#81=FACE_OUTER_BOUND('',#98,.T.);
#82=FACE_OUTER_BOUND('',#99,.T.);
#83=FACE_OUTER_BOUND('',#102,.T.);
#84=FACE_OUTER_BOUND('',#103,.T.);
#85=FACE_OUTER_BOUND('',#104,.T.);
#86=FACE_OUTER_BOUND('',#105,.T.);
#87=FACE_OUTER_BOUND('',#106,.T.);
#88=FACE_OUTER_BOUND('',#107,.T.);
#89=FACE_OUTER_BOUND('',#108,.T.);
#90=FACE_OUTER_BOUND('',#109,.T.);
#91=FACE_OUTER_BOUND('',#110,.T.);
#92=FACE_OUTER_BOUND('',#111,.T.);
#93=FACE_OUTER_BOUND('',#112,.T.);
#94=FACE_OUTER_BOUND('',#113,.T.);
#95=FACE_OUTER_BOUND('',#114,.T.);
#96=EDGE_LOOP('',(#155,#156,#157,#158));
#97=EDGE_LOOP('',(#159,#160,#161,#162));
#98=EDGE_LOOP('',(#163,#164,#165,#166));
#99=EDGE_LOOP('',(#167,#168,#169,#170));
#100=EDGE_LOOP('',(#171,#172));
#101=EDGE_LOOP('',(#173,#174,#175,#176,#177,#178));
#102=EDGE_LOOP('',(#179,#180,#181,#182));
#103=EDGE_LOOP('',(#183,#184,#185,#186));
#104=EDGE_LOOP('',(#187,#188,#189,#190));
#105=EDGE_LOOP('',(#191,#192,#193,#194));
#106=EDGE_LOOP('',(#195,#196,#197,#198));
#107=EDGE_LOOP('',(#199,#200,#201,#202));
#108=EDGE_LOOP('',(#203,#204,#205,#206,#207,#208));
#109=EDGE_LOOP('',(#209,#210,#211,#212,#213,#214));
#110=EDGE_LOOP('',(#215,#216,#217));
#111=EDGE_LOOP('',(#218,#219,#220));
#112=EDGE_LOOP('',(#221,#222,#223,#224));
#113=EDGE_LOOP('',(#225,#226,#227,#228));
#114=EDGE_LOOP('',(#229,#230));
#115=LINE('',#448,#135);
#116=LINE('',#452,#136);
#117=LINE('',#457,#137);
#118=LINE('',#461,#138);
#119=LINE('',#465,#139);
#120=LINE('',#468,#140);
#121=LINE('',#470,#141);
#122=LINE('',#472,#142);
#123=LINE('',#474,#143);
#124=LINE('',#476,#144);
#125=LINE('',#478,#145);
#126=LINE('',#492,#146);
#127=LINE('',#506,#147);
#128=LINE('',#520,#148);
#129=LINE('',#534,#149);
#130=LINE('',#548,#150);
#131=LINE('',#562,#151);
#132=LINE('',#566,#152);
#133=LINE('',#578,#153);
#134=LINE('',#579,#154);
#135=VECTOR('',#363,1.);
#136=VECTOR('',#366,1.);
#137=VECTOR('',#375,1.);
#138=VECTOR('',#378,1.);
#139=VECTOR('',#385,1.);
#140=VECTOR('',#386,1.);
#141=VECTOR('',#387,1.);
#142=VECTOR('',#388,1.);
#143=VECTOR('',#389,1.);
#144=VECTOR('',#390,1.);
#145=VECTOR('',#393,1.);
#146=VECTOR('',#394,1.);
#147=VECTOR('',#397,1.);
#148=VECTOR('',#400,1.);
#149=VECTOR('',#403,1.);
#150=VECTOR('',#406,1.);
#151=VECTOR('',#411,1.);
#152=VECTOR('',#414,1.);
#153=VECTOR('',#431,1.);
#154=VECTOR('',#432,1.);
#155=ORIENTED_EDGE('',*,*,#254,.T.);
#156=ORIENTED_EDGE('',*,*,#255,.F.);
#157=ORIENTED_EDGE('',*,*,#256,.F.);
#158=ORIENTED_EDGE('',*,*,#257,.T.);
#159=ORIENTED_EDGE('',*,*,#258,.T.);
#160=ORIENTED_EDGE('',*,*,#255,.T.);
#161=ORIENTED_EDGE('',*,*,#259,.F.);
#162=ORIENTED_EDGE('',*,*,#257,.F.);
#163=ORIENTED_EDGE('',*,*,#259,.T.);
#164=ORIENTED_EDGE('',*,*,#260,.F.);
#165=ORIENTED_EDGE('',*,*,#261,.F.);
#166=ORIENTED_EDGE('',*,*,#262,.T.);
#167=ORIENTED_EDGE('',*,*,#263,.T.);
#168=ORIENTED_EDGE('',*,*,#260,.T.);
#169=ORIENTED_EDGE('',*,*,#254,.F.);
#170=ORIENTED_EDGE('',*,*,#262,.F.);
#171=ORIENTED_EDGE('',*,*,#263,.F.);
#172=ORIENTED_EDGE('',*,*,#261,.T.);
#173=ORIENTED_EDGE('',*,*,#264,.F.);
#174=ORIENTED_EDGE('',*,*,#265,.F.);
#175=ORIENTED_EDGE('',*,*,#266,.F.);
#176=ORIENTED_EDGE('',*,*,#267,.F.);
#177=ORIENTED_EDGE('',*,*,#268,.F.);
#178=ORIENTED_EDGE('',*,*,#269,.F.);
#179=ORIENTED_EDGE('',*,*,#270,.T.);
#180=ORIENTED_EDGE('',*,*,#271,.T.);
#181=ORIENTED_EDGE('',*,*,#272,.F.);
#182=ORIENTED_EDGE('',*,*,#269,.T.);
#183=ORIENTED_EDGE('',*,*,#272,.T.);
#184=ORIENTED_EDGE('',*,*,#273,.T.);
#185=ORIENTED_EDGE('',*,*,#274,.F.);
#186=ORIENTED_EDGE('',*,*,#264,.T.);
#187=ORIENTED_EDGE('',*,*,#274,.T.);
#188=ORIENTED_EDGE('',*,*,#275,.T.);
#189=ORIENTED_EDGE('',*,*,#276,.F.);
#190=ORIENTED_EDGE('',*,*,#265,.T.);
#191=ORIENTED_EDGE('',*,*,#276,.T.);
#192=ORIENTED_EDGE('',*,*,#277,.T.);
#193=ORIENTED_EDGE('',*,*,#278,.F.);
#194=ORIENTED_EDGE('',*,*,#266,.T.);
#195=ORIENTED_EDGE('',*,*,#278,.T.);
#196=ORIENTED_EDGE('',*,*,#279,.T.);
#197=ORIENTED_EDGE('',*,*,#280,.F.);
#198=ORIENTED_EDGE('',*,*,#267,.T.);
#199=ORIENTED_EDGE('',*,*,#280,.T.);
#200=ORIENTED_EDGE('',*,*,#281,.T.);
#201=ORIENTED_EDGE('',*,*,#270,.F.);
#202=ORIENTED_EDGE('',*,*,#268,.T.);
#203=ORIENTED_EDGE('',*,*,#279,.F.);
#204=ORIENTED_EDGE('',*,*,#277,.F.);
#205=ORIENTED_EDGE('',*,*,#282,.F.);
#206=ORIENTED_EDGE('',*,*,#283,.F.);
#207=ORIENTED_EDGE('',*,*,#284,.T.);
#208=ORIENTED_EDGE('',*,*,#281,.F.);
#209=ORIENTED_EDGE('',*,*,#284,.F.);
#210=ORIENTED_EDGE('',*,*,#285,.T.);
#211=ORIENTED_EDGE('',*,*,#282,.T.);
#212=ORIENTED_EDGE('',*,*,#275,.F.);
#213=ORIENTED_EDGE('',*,*,#273,.F.);
#214=ORIENTED_EDGE('',*,*,#271,.F.);
#215=ORIENTED_EDGE('',*,*,#286,.F.);
#216=ORIENTED_EDGE('',*,*,#285,.F.);
#217=ORIENTED_EDGE('',*,*,#287,.T.);
#218=ORIENTED_EDGE('',*,*,#283,.T.);
#219=ORIENTED_EDGE('',*,*,#286,.T.);
#220=ORIENTED_EDGE('',*,*,#287,.F.);
#221=ORIENTED_EDGE('',*,*,#288,.T.);
#222=ORIENTED_EDGE('',*,*,#289,.F.);
#223=ORIENTED_EDGE('',*,*,#258,.F.);
#224=ORIENTED_EDGE('',*,*,#290,.T.);
#225=ORIENTED_EDGE('',*,*,#256,.T.);
#226=ORIENTED_EDGE('',*,*,#289,.T.);
#227=ORIENTED_EDGE('',*,*,#291,.F.);
#228=ORIENTED_EDGE('',*,*,#290,.F.);
#229=ORIENTED_EDGE('',*,*,#291,.T.);
#230=ORIENTED_EDGE('',*,*,#288,.F.);
#231=VERTEX_POINT('',#446);
#232=VERTEX_POINT('',#447);
#233=VERTEX_POINT('',#449);
#234=VERTEX_POINT('',#451);
#235=VERTEX_POINT('',#458);
#236=VERTEX_POINT('',#460);
#237=VERTEX_POINT('',#466);
#238=VERTEX_POINT('',#467);
#239=VERTEX_POINT('',#469);
#240=VERTEX_POINT('',#471);
#241=VERTEX_POINT('',#473);
#242=VERTEX_POINT('',#475);
#243=VERTEX_POINT('',#479);
#244=VERTEX_POINT('',#491);
#245=VERTEX_POINT('',#505);
#246=VERTEX_POINT('',#519);
#247=VERTEX_POINT('',#533);
#248=VERTEX_POINT('',#547);
#249=VERTEX_POINT('',#563);
#250=VERTEX_POINT('',#565);
#251=VERTEX_POINT('',#571);
#252=VERTEX_POINT('',#576);
#253=VERTEX_POINT('',#577);
#254=EDGE_CURVE('',#231,#232,#292,.T.);
#255=EDGE_CURVE('',#233,#232,#115,.T.);
#256=EDGE_CURVE('',#234,#233,#293,.T.);
#257=EDGE_CURVE('',#234,#231,#116,.T.);
#258=EDGE_CURVE('',#234,#233,#294,.T.);
#259=EDGE_CURVE('',#231,#232,#295,.T.);
#260=EDGE_CURVE('',#235,#232,#117,.T.);
#261=EDGE_CURVE('',#236,#235,#296,.T.);
#262=EDGE_CURVE('',#236,#231,#118,.T.);
#263=EDGE_CURVE('',#236,#235,#297,.T.);
#264=EDGE_CURVE('',#237,#238,#119,.T.);
#265=EDGE_CURVE('',#239,#237,#120,.T.);
#266=EDGE_CURVE('',#240,#239,#121,.T.);
#267=EDGE_CURVE('',#241,#240,#122,.T.);
#268=EDGE_CURVE('',#242,#241,#123,.T.);
#269=EDGE_CURVE('',#238,#242,#124,.T.);
#270=EDGE_CURVE('',#242,#243,#125,.T.);
#271=EDGE_CURVE('',#243,#244,#37,.T.);
#272=EDGE_CURVE('',#238,#244,#126,.T.);
#273=EDGE_CURVE('',#244,#245,#38,.T.);
#274=EDGE_CURVE('',#237,#245,#127,.T.);
#275=EDGE_CURVE('',#245,#246,#39,.T.);
#276=EDGE_CURVE('',#239,#246,#128,.T.);
#277=EDGE_CURVE('',#246,#247,#40,.T.);
#278=EDGE_CURVE('',#240,#247,#129,.T.);
#279=EDGE_CURVE('',#247,#248,#41,.T.);
#280=EDGE_CURVE('',#241,#248,#130,.T.);
#281=EDGE_CURVE('',#248,#243,#42,.T.);
#282=EDGE_CURVE('',#249,#246,#131,.T.);
#283=EDGE_CURVE('',#250,#249,#298,.T.);
#284=EDGE_CURVE('',#250,#243,#132,.T.);
#285=EDGE_CURVE('',#250,#249,#299,.T.);
#286=EDGE_CURVE('',#249,#251,#300,.T.);
#287=EDGE_CURVE('',#250,#251,#301,.T.);
#288=EDGE_CURVE('',#252,#253,#302,.T.);
#289=EDGE_CURVE('',#233,#253,#133,.T.);
#290=EDGE_CURVE('',#234,#252,#134,.T.);
#291=EDGE_CURVE('',#252,#253,#303,.T.);
#292=CIRCLE('',#325,3.);
#293=CIRCLE('',#326,3.);
#294=CIRCLE('',#328,3.);
#295=CIRCLE('',#329,3.);
#296=CIRCLE('',#331,2.25);
#297=CIRCLE('',#333,2.25);
#298=CIRCLE('',#342,1.18986716105);
#299=CIRCLE('',#344,1.18986716105);
#300=CIRCLE('',#346,4.);
#301=CIRCLE('',#347,4.);
#302=CIRCLE('',#350,2.25);
#303=CIRCLE('',#352,2.25);
#304=COLOUR_RGB('Strong Stone',0.576470588235294,0.54508278019379,0.392156862745098);
#305=COLOUR_RGB('spare part',0.301960784313725,0.301960784313725,0.301960784313725);
#306=CURVE_STYLE('',#308,POSITIVE_LENGTH_MEASURE(0.13),#321);
#307=CURVE_STYLE('',#309,POSITIVE_LENGTH_MEASURE(0.13),#304);
#308=DRAUGHTING_PRE_DEFINED_CURVE_FONT('continuous');
#309=DRAUGHTING_PRE_DEFINED_CURVE_FONT('continuous');
#310=PRESENTATION_LAYER_ASSIGNMENT('1','Layer 1',(#442,#323,#324,#33));
#311=STYLED_ITEM('',(#315),#442);
#312=STYLED_ITEM('',(#316),#323);
#313=STYLED_ITEM('',(#317),#324);
#314=STYLED_ITEM('',(#318),#33);
#315=PRESENTATION_STYLE_ASSIGNMENT((#319));
#316=PRESENTATION_STYLE_ASSIGNMENT((#306));
#317=PRESENTATION_STYLE_ASSIGNMENT((#307));
#318=PRESENTATION_STYLE_ASSIGNMENT((#28));
#319=POINT_STYLE('',#320,POSITIVE_LENGTH_MEASURE(3.),#321);
#320=PRE_DEFINED_POINT_MARKER_SYMBOL('plus');
#321=DRAUGHTING_PRE_DEFINED_COLOUR('yellow');
#322=AXIS2_PLACEMENT_3D('',#441,#355,#356);
#323=AXIS2_PLACEMENT_3D('PCS',#443,#357,#358);
#324=AXIS2_PLACEMENT_3D('',#444,#359,#360);
#325=AXIS2_PLACEMENT_3D('',#445,#361,#362);
#326=AXIS2_PLACEMENT_3D('',#450,#364,#365);
#327=AXIS2_PLACEMENT_3D('',#453,#367,#368);
#328=AXIS2_PLACEMENT_3D('',#454,#369,#370);
#329=AXIS2_PLACEMENT_3D('',#455,#371,#372);
#330=AXIS2_PLACEMENT_3D('',#456,#373,#374);
#331=AXIS2_PLACEMENT_3D('',#459,#376,#377);
#332=AXIS2_PLACEMENT_3D('',#462,#379,#380);
#333=AXIS2_PLACEMENT_3D('',#463,#381,#382);
#334=AXIS2_PLACEMENT_3D('',#464,#383,#384);
#335=AXIS2_PLACEMENT_3D('',#477,#391,#392);
#336=AXIS2_PLACEMENT_3D('',#493,#395,#396);
#337=AXIS2_PLACEMENT_3D('',#507,#398,#399);
#338=AXIS2_PLACEMENT_3D('',#521,#401,#402);
#339=AXIS2_PLACEMENT_3D('',#535,#404,#405);
#340=AXIS2_PLACEMENT_3D('',#549,#407,#408);
#341=AXIS2_PLACEMENT_3D('',#561,#409,#410);
#342=AXIS2_PLACEMENT_3D('',#564,#412,#413);
#343=AXIS2_PLACEMENT_3D('',#567,#415,#416);
#344=AXIS2_PLACEMENT_3D('',#568,#417,#418);
#345=AXIS2_PLACEMENT_3D('',#569,#419,#420);
#346=AXIS2_PLACEMENT_3D('',#570,#421,#422);
#347=AXIS2_PLACEMENT_3D('',#572,#423,#424);
#348=AXIS2_PLACEMENT_3D('',#573,#425,#426);
#349=AXIS2_PLACEMENT_3D('',#574,#427,#428);
#350=AXIS2_PLACEMENT_3D('',#575,#429,#430);
#351=AXIS2_PLACEMENT_3D('',#580,#433,#434);
#352=AXIS2_PLACEMENT_3D('',#581,#435,#436);
#353=AXIS2_PLACEMENT_3D('',#582,#437,#438);
#354=AXIS2_PLACEMENT_3D('',#583,#439,#440);
#355=DIRECTION('',(0.,0.,1.));
#356=DIRECTION('',(1.,0.,0.));
#357=DIRECTION('',(0.,0.,1.));
#358=DIRECTION('',(1.,0.,0.));
#359=DIRECTION('',(0.,0.,1.));
#360=DIRECTION('',(1.,0.,0.));
#361=DIRECTION('',(0.,0.,1.));
#362=DIRECTION('',(-1.,0.,0.));
#363=DIRECTION('',(0.,0.,-1.));
#364=DIRECTION('',(0.,0.,1.));
#365=DIRECTION('',(-1.,0.,0.));
#366=DIRECTION('',(0.,0.,-1.));
#367=DIRECTION('',(0.,0.,1.));
#368=DIRECTION('',(1.,0.,0.));
#369=DIRECTION('',(0.,0.,-1.));
#370=DIRECTION('',(-1.,0.,0.));
#371=DIRECTION('',(0.,0.,-1.));
#372=DIRECTION('',(-1.,0.,0.));
#373=DIRECTION('',(0.,0.,1.));
#374=DIRECTION('',(1.,0.,0.));
#375=DIRECTION('',(0.866025403784429,0.,0.500000000000017));
#376=DIRECTION('',(0.,0.,-1.));
#377=DIRECTION('',(-1.,0.,0.));
#378=DIRECTION('',(-0.866025403784429,0.,0.500000000000017));
#379=DIRECTION('',(0.,0.,1.));
#380=DIRECTION('',(1.,0.,-2.58288347496796E-17));
#381=DIRECTION('',(0.,0.,1.));
#382=DIRECTION('',(-1.,0.,0.));
#383=DIRECTION('',(0.,0.,1.));
#384=DIRECTION('',(1.,0.,-2.58288347496796E-17));
#385=DIRECTION('',(-1.,0.,0.));
#386=DIRECTION('',(-0.500000000000017,-0.866025403784429,0.));
#387=DIRECTION('',(0.500000000000017,-0.866025403784429,0.));
#388=DIRECTION('',(1.,0.,0.));
#389=DIRECTION('',(0.500000000000017,0.866025403784429,0.));
#390=DIRECTION('',(-0.500000000000017,0.866025403784429,0.));
#391=DIRECTION('',(0.,0.,1.));
#392=DIRECTION('',(1.,0.,0.));
#393=DIRECTION('',(0.,0.,1.));
#394=DIRECTION('',(0.,0.,1.));
#395=DIRECTION('',(-0.866025403784429,-0.500000000000017,0.));
#396=DIRECTION('',(0.500000000000017,-0.866025403784429,0.));
#397=DIRECTION('',(0.,0.,1.));
#398=DIRECTION('',(0.,-1.,0.));
#399=DIRECTION('',(1.,0.,0.));
#400=DIRECTION('',(0.,0.,1.));
#401=DIRECTION('',(0.866025403784429,-0.500000000000017,0.));
#402=DIRECTION('',(0.500000000000017,0.866025403784429,0.));
#403=DIRECTION('',(0.,0.,1.));
#404=DIRECTION('',(0.866025403784429,0.500000000000017,0.));
#405=DIRECTION('',(-0.500000000000017,0.866025403784429,0.));
#406=DIRECTION('',(0.,0.,1.));
#407=DIRECTION('',(0.,1.,0.));
#408=DIRECTION('',(-1.,0.,0.));
#409=DIRECTION('',(-0.866025403784429,0.500000000000017,0.));
#410=DIRECTION('',(-0.500000000000017,-0.866025403784429,0.));
#411=DIRECTION('',(0.9547321659455,0.,-0.2974667902624));
#412=DIRECTION('',(0.,0.,-1.));
#413=DIRECTION('',(-1.,0.,0.));
#414=DIRECTION('',(-0.9547321659455,0.,-0.2974667902624));
#415=DIRECTION('',(0.,0.,-1.));
#416=DIRECTION('',(-1.,0.,-1.52618787216751E-17));
#417=DIRECTION('',(0.,0.,1.));
#418=DIRECTION('',(-1.,0.,0.));
#419=DIRECTION('',(0.,0.,-1.));
#420=DIRECTION('',(-1.,0.,-1.52618787216751E-17));
#421=DIRECTION('',(0.,-1.,0.));
#422=DIRECTION('',(0.2974667902624,0.,0.9547321659455));
#423=DIRECTION('',(0.,1.,0.));
#424=DIRECTION('',(-0.2974667902624,0.,0.9547321659455));
#425=DIRECTION('',(6.12323399573677E-17,0.,1.));
#426=DIRECTION('',(1.,0.,0.));
#427=DIRECTION('',(6.12323399573677E-17,0.,1.));
#428=DIRECTION('',(1.,0.,0.));
#429=DIRECTION('',(0.,0.,-1.));
#430=DIRECTION('',(-1.,0.,0.));
#431=DIRECTION('',(-0.707106781186547,0.,0.707106781186547));
#432=DIRECTION('',(0.707106781186547,0.,0.707106781186547));
#433=DIRECTION('',(0.,0.,-1.));
#434=DIRECTION('',(-1.,0.,-8.65090874442991E-18));
#435=DIRECTION('',(0.,0.,1.));
#436=DIRECTION('',(-1.,0.,0.));
#437=DIRECTION('',(0.,0.,-1.));
#438=DIRECTION('',(-1.,0.,-8.65090874442991E-18));
#439=DIRECTION('',(0.,0.,1.));
#440=DIRECTION('',(1.,0.,0.));
#441=CARTESIAN_POINT('',(0.,0.,0.));
#442=CARTESIAN_POINT('',(0.,0.,0.));
#443=CARTESIAN_POINT('',(0.,0.,0.));
#444=CARTESIAN_POINT('',(0.,0.,0.));
#445=CARTESIAN_POINT('',(0.,0.,0.4330127018922));
#446=CARTESIAN_POINT('',(-3.,0.,0.4330127018922));
#447=CARTESIAN_POINT('',(3.,0.,0.4330127018922));
#448=CARTESIAN_POINT('',(3.,0.,0.4330127018922));
#449=CARTESIAN_POINT('',(3.,0.,5.25));
#450=CARTESIAN_POINT('',(0.,0.,5.25));
#451=CARTESIAN_POINT('',(-3.,0.,5.25));
#452=CARTESIAN_POINT('',(-3.,0.,0.4330127018922));
#453=CARTESIAN_POINT('',(0.,0.,-0.3));
#454=CARTESIAN_POINT('',(0.,0.,5.25));
#455=CARTESIAN_POINT('',(0.,0.,0.4330127018922));
#456=CARTESIAN_POINT('',(0.,0.,-0.3));
#457=CARTESIAN_POINT('',(2.25,0.,0.));
#458=CARTESIAN_POINT('',(2.25,0.,0.));
#459=CARTESIAN_POINT('',(0.,0.,0.));
#460=CARTESIAN_POINT('',(-2.25,0.,0.));
#461=CARTESIAN_POINT('',(-2.25,0.,0.));
#462=CARTESIAN_POINT('',(0.,0.,0.2165063509461));
#463=CARTESIAN_POINT('',(0.,0.,0.));
#464=CARTESIAN_POINT('',(0.,0.,0.2165063509461));
#465=CARTESIAN_POINT('',(0.8660254037844,-1.5,0.));
#466=CARTESIAN_POINT('',(0.8660254037844,-1.5,0.));
#467=CARTESIAN_POINT('',(-0.8660254037844,-1.5,0.));
#468=CARTESIAN_POINT('',(1.732050807569,0.,0.));
#469=CARTESIAN_POINT('',(1.732050807569,0.,0.));
#470=CARTESIAN_POINT('',(0.8660254037844,1.5,0.));
#471=CARTESIAN_POINT('',(0.8660254037844,1.5,0.));
#472=CARTESIAN_POINT('',(-0.8660254037844,1.5,0.));
#473=CARTESIAN_POINT('',(-0.8660254037844,1.5,0.));
#474=CARTESIAN_POINT('',(-1.732050807569,0.,0.));
#475=CARTESIAN_POINT('',(-1.732050807569,0.,0.));
#476=CARTESIAN_POINT('',(-0.8660254037844,-1.5,0.));
#477=CARTESIAN_POINT('',(0.,0.,0.));
#478=CARTESIAN_POINT('',(-1.732050807569,0.,0.));
#479=CARTESIAN_POINT('',(-1.732050807569,0.,2.65));
#480=CARTESIAN_POINT('',(-1.732050807569,0.,2.65));
#481=CARTESIAN_POINT('',(-1.69480302942,-0.06451504422251,2.661605324934));
#482=CARTESIAN_POINT('',(-1.62108445651,-0.1921993579647,2.682305702598));
#483=CARTESIAN_POINT('',(-1.513875301963,-0.3778910606756,2.704911018288));
#484=CARTESIAN_POINT('',(-1.406706964686,-0.5635120658028,2.719068257831));
#485=CARTESIAN_POINT('',(-1.298991468706,-0.7500807776029,2.723918164373));
#486=CARTESIAN_POINT('',(-1.191275294736,-0.9366506637155,2.719060796826));
#487=CARTESIAN_POINT('',(-1.084076441201,-1.122324524551,2.704888323729));
#488=CARTESIAN_POINT('',(-0.9769760059679,-1.307827919888,2.682299658014));
#489=CARTESIAN_POINT('',(-0.903269395766,-1.435491513611,2.661604145274));
#490=CARTESIAN_POINT('',(-0.8660254037844,-1.5,2.65));
#491=CARTESIAN_POINT('',(-0.8660254037844,-1.5,2.65));
#492=CARTESIAN_POINT('',(-0.8660254037844,-1.5,0.));
#493=CARTESIAN_POINT('',(-0.8660254037844,-1.5,0.));
#494=CARTESIAN_POINT('',(-0.8660254037844,-1.5,2.65));
#495=CARTESIAN_POINT('',(-0.7915298474871,-1.5,2.661605324934));
#496=CARTESIAN_POINT('',(-0.6440927016664,-1.5,2.682305702598));
#497=CARTESIAN_POINT('',(-0.4296743925736,-1.5,2.704911018288));
#498=CARTESIAN_POINT('',(-0.2153377180187,-1.5,2.719068257831));
#499=CARTESIAN_POINT('',(9.327394159298E-5,-1.5,2.723918164373));
#500=CARTESIAN_POINT('',(0.2155256218811,-1.5,2.719060796826));
#501=CARTESIAN_POINT('',(0.4299233289506,-1.5,2.704888323729));
#502=CARTESIAN_POINT('',(0.6441241994175,-1.5,2.682299658014));
#503=CARTESIAN_POINT('',(0.7915374198213,-1.5,2.661604145274));
#504=CARTESIAN_POINT('',(0.8660254037844,-1.5,2.65));
#505=CARTESIAN_POINT('',(0.8660254037844,-1.5,2.65));
#506=CARTESIAN_POINT('',(0.8660254037844,-1.5,0.));
#507=CARTESIAN_POINT('',(0.8660254037844,-1.5,0.));
#508=CARTESIAN_POINT('',(0.8660254037844,-1.5,2.65));
#509=CARTESIAN_POINT('',(0.9032731819331,-1.435484955777,2.661605324934));
#510=CARTESIAN_POINT('',(0.9769917548434,-1.307800642035,2.682305702598));
#511=CARTESIAN_POINT('',(1.08420090939,-1.122108939324,2.704911018288));
#512=CARTESIAN_POINT('',(1.191369246667,-0.9364879341972,2.719068257831));
#513=CARTESIAN_POINT('',(1.299084742647,-0.7499192223971,2.723918164373));
#514=CARTESIAN_POINT('',(1.406800916617,-0.5633493362845,2.719060796826));
#515=CARTESIAN_POINT('',(1.513999770152,-0.3776754754492,2.704888323729));
#516=CARTESIAN_POINT('',(1.621100205385,-0.1921720801122,2.682299658014));
#517=CARTESIAN_POINT('',(1.694806815587,-0.06450848638879,2.661604145274));
#518=CARTESIAN_POINT('',(1.732050807569,0.,2.65));
#519=CARTESIAN_POINT('',(1.732050807569,0.,2.65));
#520=CARTESIAN_POINT('',(1.732050807569,0.,0.));
#521=CARTESIAN_POINT('',(1.732050807569,0.,0.));
#522=CARTESIAN_POINT('',(1.732050807569,0.,2.65));
#523=CARTESIAN_POINT('',(1.69480302942,0.06451504422251,2.661605324934));
#524=CARTESIAN_POINT('',(1.62108445651,0.1921993579647,2.682305702598));
#525=CARTESIAN_POINT('',(1.513875301963,0.3778910606756,2.704911018288));
#526=CARTESIAN_POINT('',(1.406706964686,0.5635120658028,2.719068257831));
#527=CARTESIAN_POINT('',(1.298991468706,0.7500807776029,2.723918164373));
#528=CARTESIAN_POINT('',(1.191275294736,0.9366506637155,2.719060796826));
#529=CARTESIAN_POINT('',(1.084076441201,1.122324524551,2.704888323729));
#530=CARTESIAN_POINT('',(0.9769760059679,1.307827919888,2.682299658014));
#531=CARTESIAN_POINT('',(0.903269395766,1.435491513611,2.661604145274));
#532=CARTESIAN_POINT('',(0.8660254037844,1.5,2.65));
#533=CARTESIAN_POINT('',(0.8660254037844,1.5,2.65));
#534=CARTESIAN_POINT('',(0.8660254037844,1.5,0.));
#535=CARTESIAN_POINT('',(0.8660254037844,1.5,0.));
#536=CARTESIAN_POINT('',(0.8660254037844,1.5,2.65));
#537=CARTESIAN_POINT('',(0.7915298474871,1.5,2.661605324934));
#538=CARTESIAN_POINT('',(0.6440927016664,1.5,2.682305702598));
#539=CARTESIAN_POINT('',(0.4296743925736,1.5,2.704911018288));
#540=CARTESIAN_POINT('',(0.2153377180187,1.5,2.719068257831));
#541=CARTESIAN_POINT('',(-9.327394159427E-5,1.5,2.723918164373));
#542=CARTESIAN_POINT('',(-0.2155256218811,1.5,2.719060796826));
#543=CARTESIAN_POINT('',(-0.4299233289506,1.5,2.704888323729));
#544=CARTESIAN_POINT('',(-0.6441241994175,1.5,2.682299658014));
#545=CARTESIAN_POINT('',(-0.7915374198213,1.5,2.661604145274));
#546=CARTESIAN_POINT('',(-0.8660254037844,1.5,2.65));
#547=CARTESIAN_POINT('',(-0.8660254037844,1.5,2.65));
#548=CARTESIAN_POINT('',(-0.8660254037844,1.5,0.));
#549=CARTESIAN_POINT('',(-0.8660254037844,1.5,0.));
#550=CARTESIAN_POINT('',(-0.8660254037844,1.5,2.65));
#551=CARTESIAN_POINT('',(-0.9032731819331,1.435484955777,2.661605324934));
#552=CARTESIAN_POINT('',(-0.9769917548434,1.307800642035,2.682305702598));
#553=CARTESIAN_POINT('',(-1.08420090939,1.122108939324,2.704911018288));
#554=CARTESIAN_POINT('',(-1.191369246667,0.9364879341972,2.719068257831));
#555=CARTESIAN_POINT('',(-1.299084742647,0.7499192223971,2.723918164373));
#556=CARTESIAN_POINT('',(-1.406800916617,0.5633493362845,2.719060796826));
#557=CARTESIAN_POINT('',(-1.513999770152,0.3776754754492,2.704888323729));
#558=CARTESIAN_POINT('',(-1.621100205385,0.1921720801122,2.682299658014));
#559=CARTESIAN_POINT('',(-1.694806815587,0.06450848638879,2.661604145274));
#560=CARTESIAN_POINT('',(-1.732050807569,0.,2.65));
#561=CARTESIAN_POINT('',(-1.732050807569,0.,0.));
#562=CARTESIAN_POINT('',(1.732050807569,0.,2.65));
#563=CARTESIAN_POINT('',(1.18986716105,0.,2.818928663782));
#564=CARTESIAN_POINT('',(0.,0.,2.818928663782));
#565=CARTESIAN_POINT('',(-1.18986716105,0.,2.818928663782));
#566=CARTESIAN_POINT('',(-1.732050807569,0.,2.65));
#567=CARTESIAN_POINT('',(0.,0.,2.734464331891));
#568=CARTESIAN_POINT('',(0.,0.,2.818928663782));
#569=CARTESIAN_POINT('',(0.,0.,2.734464331891));
#570=CARTESIAN_POINT('',(0.,0.,-1.));
#571=CARTESIAN_POINT('',(0.,0.,3.));
#572=CARTESIAN_POINT('',(0.,0.,-1.));
#573=CARTESIAN_POINT('',(0.,0.,-1.));
#574=CARTESIAN_POINT('',(0.,0.,-1.));
#575=CARTESIAN_POINT('',(0.,0.,6.));
#576=CARTESIAN_POINT('',(-2.25,0.,6.));
#577=CARTESIAN_POINT('',(2.25,0.,6.));
#578=CARTESIAN_POINT('',(3.,0.,5.25));
#579=CARTESIAN_POINT('',(-3.,0.,5.25));
#580=CARTESIAN_POINT('',(0.,0.,5.625));
#581=CARTESIAN_POINT('',(0.,0.,6.));
#582=CARTESIAN_POINT('',(0.,0.,5.625));
#583=CARTESIAN_POINT('',(0.,0.,6.));
#584=MECHANICAL_DESIGN_GEOMETRIC_PRESENTATION_REPRESENTATION('',(#311,#312,
#313,#314),#585);
#585=(
GEOMETRIC_REPRESENTATION_CONTEXT(3)
GLOBAL_UNCERTAINTY_ASSIGNED_CONTEXT((#586))
GLOBAL_UNIT_ASSIGNED_CONTEXT((#592,#588,#587))
REPRESENTATION_CONTEXT('HSS06006G','TOP_LEVEL_ASSEMBLY_PART')
);
#586=UNCERTAINTY_MEASURE_WITH_UNIT(LENGTH_MEASURE(2.E-5),#592,
'DISTANCE_ACCURACY_VALUE','Maximum Tolerance applied to model');
#587=(
NAMED_UNIT(*)
SI_UNIT($,.STERADIAN.)
SOLID_ANGLE_UNIT()
);
#588=(
CONVERSION_BASED_UNIT('DEGREE',#590)
NAMED_UNIT(#589)
PLANE_ANGLE_UNIT()
);
#589=DIMENSIONAL_EXPONENTS(0.,0.,0.,0.,0.,0.,0.);
#590=PLANE_ANGLE_MEASURE_WITH_UNIT(PLANE_ANGLE_MEASURE(0.0174532925),#591);
#591=(
NAMED_UNIT(*)
PLANE_ANGLE_UNIT()
SI_UNIT($,.RADIAN.)
);
#592=(
LENGTH_UNIT()
NAMED_UNIT(*)
SI_UNIT(.MILLI.,.METRE.)
);
ENDSEC;
END-ISO-10303-21;
