ISO-10303-21;
HEADER;
/* Generated by software containing ST-Developer
 * from STEP Tools, Inc. (www.steptools.com) 
 */
/* OPTION: using custom schema-name function */

FILE_DESCRIPTION(
/* description */ (''),
/* implementation_level */ '2;1');

FILE_NAME(
/* name */ 'HSS04004G.stp',
/* time_stamp */ '2022-02-03T10:43:21+09:00',
/* author */ (''),
/* organization */ (''),
/* preprocessor_version */ 'ST-DEVELOPER v16',
/* originating_system */ 'SIEMENS PLM Software NX 10.0',
/* authorisation */ '');

FILE_SCHEMA (('AUTOMOTIVE_DESIGN { 1 0 10303 214 3 1 1 1 }'));
ENDSEC;

DATA;
#10=CONSTRUCTIVE_GEOMETRY_REPRESENTATION_RELATIONSHIP(
'supplemental geometry','',#26,#11);
#11=CONSTRUCTIVE_GEOMETRY_REPRESENTATION('supplemental geometry',(#288,
#289),#461);
#12=GEOMETRICALLY_BOUNDED_WIREFRAME_SHAPE_REPRESENTATION(
'HSS04004G-None',(#27),#461);
#13=SHAPE_REPRESENTATION_RELATIONSHIP('None',
'relationship between HSS04004G-None and HSS04004G-None',#26,#15);
#14=SHAPE_REPRESENTATION_RELATIONSHIP('None',
'relationship between HSS04004G-None and HSS04004G-None',#26,#12);
#15=ADVANCED_BREP_SHAPE_REPRESENTATION('HSS04004G-None',(#33),#461);
#16=SHAPE_DEFINITION_REPRESENTATION(#17,#26);
#17=PRODUCT_DEFINITION_SHAPE('','',#18);
#18=PRODUCT_DEFINITION('part definition','',#20,#19);
#19=PRODUCT_DEFINITION_CONTEXT('part definition',#25,'design');
#20=PRODUCT_DEFINITION_FORMATION_WITH_SPECIFIED_SOURCE(' ',' ',#22,
 .NOT_KNOWN.);
#21=PRODUCT_RELATED_PRODUCT_CATEGORY('part','',(#22));
#22=PRODUCT('HSS04004G','HSS04004G','NOT SPECIFIED',(#23));
#23=PRODUCT_CONTEXT('',#25,'mechanical');
#24=APPLICATION_PROTOCOL_DEFINITION('international standard',
'automotive_design',2010,#25);
#25=APPLICATION_CONTEXT(
'core data for automotive mechanical design processes');
#26=SHAPE_REPRESENTATION('HSS04004G-None',(#287),#461);
#27=GEOMETRIC_CURVE_SET('None',(#390));
#28=SURFACE_STYLE_USAGE(.BOTH.,#29);
#29=SURFACE_SIDE_STYLE('',(#30));
#30=SURFACE_STYLE_FILL_AREA(#31);
#31=FILL_AREA_STYLE('',(#32));
#32=FILL_AREA_STYLE_COLOUR('',#270);
#33=MANIFOLD_SOLID_BREP('',#34);
#34=CLOSED_SHELL('',(#50,#51,#52,#53,#54,#55,#56,#57,#58,#59,#60,#61,#62,
#63,#64));
#35=PLANE('',#300);
#36=PLANE('',#301);
#37=PLANE('',#302);
#38=PLANE('',#303);
#39=PLANE('',#304);
#40=PLANE('',#305);
#41=PLANE('',#306);
#42=PLANE('',#307);
#43=PLANE('',#312);
#44=FACE_BOUND('',#85,.T.);
#45=FACE_BOUND('',#86,.T.);
#46=CONICAL_SURFACE('',#297,1.75,60.);
#47=CONICAL_SURFACE('',#299,1.75,60.);
#48=CONICAL_SURFACE('',#309,1.75,45.);
#49=CONICAL_SURFACE('',#311,1.75,45.);
#50=ADVANCED_FACE('',(#67),#65,.T.);
#51=ADVANCED_FACE('',(#68),#66,.T.);
#52=ADVANCED_FACE('',(#69),#46,.T.);
#53=ADVANCED_FACE('',(#70),#47,.T.);
#54=ADVANCED_FACE('',(#44,#45),#35,.F.);
#55=ADVANCED_FACE('',(#71),#36,.F.);
#56=ADVANCED_FACE('',(#72),#37,.F.);
#57=ADVANCED_FACE('',(#73),#38,.F.);
#58=ADVANCED_FACE('',(#74),#39,.F.);
#59=ADVANCED_FACE('',(#75),#40,.F.);
#60=ADVANCED_FACE('',(#76),#41,.F.);
#61=ADVANCED_FACE('',(#77),#42,.T.);
#62=ADVANCED_FACE('',(#78),#48,.T.);
#63=ADVANCED_FACE('',(#79),#49,.T.);
#64=ADVANCED_FACE('',(#80),#43,.T.);
#65=CYLINDRICAL_SURFACE('',#292,2.);
#66=CYLINDRICAL_SURFACE('',#295,2.);
#67=FACE_OUTER_BOUND('',#81,.T.);
#68=FACE_OUTER_BOUND('',#82,.T.);
#69=FACE_OUTER_BOUND('',#83,.T.);
#70=FACE_OUTER_BOUND('',#84,.T.);
#71=FACE_OUTER_BOUND('',#87,.T.);
#72=FACE_OUTER_BOUND('',#88,.T.);
#73=FACE_OUTER_BOUND('',#89,.T.);
#74=FACE_OUTER_BOUND('',#90,.T.);
#75=FACE_OUTER_BOUND('',#91,.T.);
#76=FACE_OUTER_BOUND('',#92,.T.);
#77=FACE_OUTER_BOUND('',#93,.T.);
#78=FACE_OUTER_BOUND('',#94,.T.);
#79=FACE_OUTER_BOUND('',#95,.T.);
#80=FACE_OUTER_BOUND('',#96,.T.);
#81=EDGE_LOOP('',(#145,#146,#147,#148));
#82=EDGE_LOOP('',(#149,#150,#151,#152));
#83=EDGE_LOOP('',(#153,#154,#155,#156));
#84=EDGE_LOOP('',(#157,#158,#159,#160));
#85=EDGE_LOOP('',(#161,#162));
#86=EDGE_LOOP('',(#163,#164,#165,#166,#167,#168));
#87=EDGE_LOOP('',(#169,#170,#171,#172));
#88=EDGE_LOOP('',(#173,#174,#175,#176));
#89=EDGE_LOOP('',(#177,#178,#179,#180));
#90=EDGE_LOOP('',(#181,#182,#183,#184));
#91=EDGE_LOOP('',(#185,#186,#187,#188));
#92=EDGE_LOOP('',(#189,#190,#191,#192));
#93=EDGE_LOOP('',(#193,#194,#195,#196,#197,#198));
#94=EDGE_LOOP('',(#199,#200,#201,#202));
#95=EDGE_LOOP('',(#203,#204,#205,#206));
#96=EDGE_LOOP('',(#207,#208));
#97=LINE('',#396,#121);
#98=LINE('',#400,#122);
#99=LINE('',#405,#123);
#100=LINE('',#409,#124);
#101=LINE('',#413,#125);
#102=LINE('',#416,#126);
#103=LINE('',#418,#127);
#104=LINE('',#420,#128);
#105=LINE('',#422,#129);
#106=LINE('',#424,#130);
#107=LINE('',#426,#131);
#108=LINE('',#428,#132);
#109=LINE('',#430,#133);
#110=LINE('',#432,#134);
#111=LINE('',#434,#135);
#112=LINE('',#436,#136);
#113=LINE('',#438,#137);
#114=LINE('',#440,#138);
#115=LINE('',#442,#139);
#116=LINE('',#444,#140);
#117=LINE('',#446,#141);
#118=LINE('',#448,#142);
#119=LINE('',#454,#143);
#120=LINE('',#455,#144);
#121=VECTOR('',#321,1.);
#122=VECTOR('',#324,1.);
#123=VECTOR('',#333,1.);
#124=VECTOR('',#336,1.);
#125=VECTOR('',#343,1.);
#126=VECTOR('',#344,1.);
#127=VECTOR('',#345,1.);
#128=VECTOR('',#346,1.);
#129=VECTOR('',#347,1.);
#130=VECTOR('',#348,1.);
#131=VECTOR('',#351,1.);
#132=VECTOR('',#352,1.);
#133=VECTOR('',#353,1.);
#134=VECTOR('',#356,1.);
#135=VECTOR('',#357,1.);
#136=VECTOR('',#360,1.);
#137=VECTOR('',#361,1.);
#138=VECTOR('',#364,1.);
#139=VECTOR('',#365,1.);
#140=VECTOR('',#368,1.);
#141=VECTOR('',#369,1.);
#142=VECTOR('',#372,1.);
#143=VECTOR('',#379,1.);
#144=VECTOR('',#380,1.);
#145=ORIENTED_EDGE('',*,*,#229,.T.);
#146=ORIENTED_EDGE('',*,*,#230,.F.);
#147=ORIENTED_EDGE('',*,*,#231,.F.);
#148=ORIENTED_EDGE('',*,*,#232,.T.);
#149=ORIENTED_EDGE('',*,*,#233,.T.);
#150=ORIENTED_EDGE('',*,*,#230,.T.);
#151=ORIENTED_EDGE('',*,*,#234,.F.);
#152=ORIENTED_EDGE('',*,*,#232,.F.);
#153=ORIENTED_EDGE('',*,*,#234,.T.);
#154=ORIENTED_EDGE('',*,*,#235,.F.);
#155=ORIENTED_EDGE('',*,*,#236,.F.);
#156=ORIENTED_EDGE('',*,*,#237,.T.);
#157=ORIENTED_EDGE('',*,*,#238,.T.);
#158=ORIENTED_EDGE('',*,*,#235,.T.);
#159=ORIENTED_EDGE('',*,*,#229,.F.);
#160=ORIENTED_EDGE('',*,*,#237,.F.);
#161=ORIENTED_EDGE('',*,*,#238,.F.);
#162=ORIENTED_EDGE('',*,*,#236,.T.);
#163=ORIENTED_EDGE('',*,*,#239,.F.);
#164=ORIENTED_EDGE('',*,*,#240,.F.);
#165=ORIENTED_EDGE('',*,*,#241,.F.);
#166=ORIENTED_EDGE('',*,*,#242,.F.);
#167=ORIENTED_EDGE('',*,*,#243,.F.);
#168=ORIENTED_EDGE('',*,*,#244,.F.);
#169=ORIENTED_EDGE('',*,*,#245,.T.);
#170=ORIENTED_EDGE('',*,*,#246,.F.);
#171=ORIENTED_EDGE('',*,*,#247,.F.);
#172=ORIENTED_EDGE('',*,*,#244,.T.);
#173=ORIENTED_EDGE('',*,*,#247,.T.);
#174=ORIENTED_EDGE('',*,*,#248,.F.);
#175=ORIENTED_EDGE('',*,*,#249,.F.);
#176=ORIENTED_EDGE('',*,*,#239,.T.);
#177=ORIENTED_EDGE('',*,*,#249,.T.);
#178=ORIENTED_EDGE('',*,*,#250,.F.);
#179=ORIENTED_EDGE('',*,*,#251,.F.);
#180=ORIENTED_EDGE('',*,*,#240,.T.);
#181=ORIENTED_EDGE('',*,*,#251,.T.);
#182=ORIENTED_EDGE('',*,*,#252,.F.);
#183=ORIENTED_EDGE('',*,*,#253,.F.);
#184=ORIENTED_EDGE('',*,*,#241,.T.);
#185=ORIENTED_EDGE('',*,*,#253,.T.);
#186=ORIENTED_EDGE('',*,*,#254,.F.);
#187=ORIENTED_EDGE('',*,*,#255,.F.);
#188=ORIENTED_EDGE('',*,*,#242,.T.);
#189=ORIENTED_EDGE('',*,*,#255,.T.);
#190=ORIENTED_EDGE('',*,*,#256,.F.);
#191=ORIENTED_EDGE('',*,*,#245,.F.);
#192=ORIENTED_EDGE('',*,*,#243,.T.);
#193=ORIENTED_EDGE('',*,*,#256,.T.);
#194=ORIENTED_EDGE('',*,*,#254,.T.);
#195=ORIENTED_EDGE('',*,*,#252,.T.);
#196=ORIENTED_EDGE('',*,*,#250,.T.);
#197=ORIENTED_EDGE('',*,*,#248,.T.);
#198=ORIENTED_EDGE('',*,*,#246,.T.);
#199=ORIENTED_EDGE('',*,*,#257,.T.);
#200=ORIENTED_EDGE('',*,*,#258,.F.);
#201=ORIENTED_EDGE('',*,*,#233,.F.);
#202=ORIENTED_EDGE('',*,*,#259,.T.);
#203=ORIENTED_EDGE('',*,*,#231,.T.);
#204=ORIENTED_EDGE('',*,*,#258,.T.);
#205=ORIENTED_EDGE('',*,*,#260,.F.);
#206=ORIENTED_EDGE('',*,*,#259,.F.);
#207=ORIENTED_EDGE('',*,*,#260,.T.);
#208=ORIENTED_EDGE('',*,*,#257,.F.);
#209=VERTEX_POINT('',#394);
#210=VERTEX_POINT('',#395);
#211=VERTEX_POINT('',#397);
#212=VERTEX_POINT('',#399);
#213=VERTEX_POINT('',#406);
#214=VERTEX_POINT('',#408);
#215=VERTEX_POINT('',#414);
#216=VERTEX_POINT('',#415);
#217=VERTEX_POINT('',#417);
#218=VERTEX_POINT('',#419);
#219=VERTEX_POINT('',#421);
#220=VERTEX_POINT('',#423);
#221=VERTEX_POINT('',#427);
#222=VERTEX_POINT('',#429);
#223=VERTEX_POINT('',#433);
#224=VERTEX_POINT('',#437);
#225=VERTEX_POINT('',#441);
#226=VERTEX_POINT('',#445);
#227=VERTEX_POINT('',#452);
#228=VERTEX_POINT('',#453);
#229=EDGE_CURVE('',#209,#210,#261,.T.);
#230=EDGE_CURVE('',#211,#210,#97,.T.);
#231=EDGE_CURVE('',#212,#211,#262,.T.);
#232=EDGE_CURVE('',#212,#209,#98,.T.);
#233=EDGE_CURVE('',#212,#211,#263,.T.);
#234=EDGE_CURVE('',#209,#210,#264,.T.);
#235=EDGE_CURVE('',#213,#210,#99,.T.);
#236=EDGE_CURVE('',#214,#213,#265,.T.);
#237=EDGE_CURVE('',#214,#209,#100,.T.);
#238=EDGE_CURVE('',#214,#213,#266,.T.);
#239=EDGE_CURVE('',#215,#216,#101,.T.);
#240=EDGE_CURVE('',#217,#215,#102,.T.);
#241=EDGE_CURVE('',#218,#217,#103,.T.);
#242=EDGE_CURVE('',#219,#218,#104,.T.);
#243=EDGE_CURVE('',#220,#219,#105,.T.);
#244=EDGE_CURVE('',#216,#220,#106,.T.);
#245=EDGE_CURVE('',#220,#221,#107,.T.);
#246=EDGE_CURVE('',#222,#221,#108,.T.);
#247=EDGE_CURVE('',#216,#222,#109,.T.);
#248=EDGE_CURVE('',#223,#222,#110,.T.);
#249=EDGE_CURVE('',#215,#223,#111,.T.);
#250=EDGE_CURVE('',#224,#223,#112,.T.);
#251=EDGE_CURVE('',#217,#224,#113,.T.);
#252=EDGE_CURVE('',#225,#224,#114,.T.);
#253=EDGE_CURVE('',#218,#225,#115,.T.);
#254=EDGE_CURVE('',#226,#225,#116,.T.);
#255=EDGE_CURVE('',#219,#226,#117,.T.);
#256=EDGE_CURVE('',#221,#226,#118,.T.);
#257=EDGE_CURVE('',#227,#228,#267,.T.);
#258=EDGE_CURVE('',#211,#228,#119,.T.);
#259=EDGE_CURVE('',#212,#227,#120,.T.);
#260=EDGE_CURVE('',#227,#228,#268,.T.);
#261=CIRCLE('',#290,2.);
#262=CIRCLE('',#291,2.);
#263=CIRCLE('',#293,2.);
#264=CIRCLE('',#294,2.);
#265=CIRCLE('',#296,1.5);
#266=CIRCLE('',#298,1.5);
#267=CIRCLE('',#308,1.5);
#268=CIRCLE('',#310,1.5);
#269=COLOUR_RGB('Strong Stone',0.576470588235294,0.54508278019379,0.392156862745098);
#270=COLOUR_RGB('spare part',0.301960784313725,0.301960784313725,0.301960784313725);
#271=CURVE_STYLE('',#273,POSITIVE_LENGTH_MEASURE(0.13),#286);
#272=CURVE_STYLE('',#274,POSITIVE_LENGTH_MEASURE(0.13),#269);
#273=DRAUGHTING_PRE_DEFINED_CURVE_FONT('continuous');
#274=DRAUGHTING_PRE_DEFINED_CURVE_FONT('continuous');
#275=PRESENTATION_LAYER_ASSIGNMENT('1','Layer 1',(#390,#288,#289,#33));
#276=STYLED_ITEM('',(#280),#390);
#277=STYLED_ITEM('',(#281),#288);
#278=STYLED_ITEM('',(#282),#289);
#279=STYLED_ITEM('',(#283),#33);
#280=PRESENTATION_STYLE_ASSIGNMENT((#284));
#281=PRESENTATION_STYLE_ASSIGNMENT((#271));
#282=PRESENTATION_STYLE_ASSIGNMENT((#272));
#283=PRESENTATION_STYLE_ASSIGNMENT((#28));
#284=POINT_STYLE('',#285,POSITIVE_LENGTH_MEASURE(3.),#286);
#285=PRE_DEFINED_POINT_MARKER_SYMBOL('plus');
#286=DRAUGHTING_PRE_DEFINED_COLOUR('yellow');
#287=AXIS2_PLACEMENT_3D('',#389,#313,#314);
#288=AXIS2_PLACEMENT_3D('PCS',#391,#315,#316);
#289=AXIS2_PLACEMENT_3D('',#392,#317,#318);
#290=AXIS2_PLACEMENT_3D('',#393,#319,#320);
#291=AXIS2_PLACEMENT_3D('',#398,#322,#323);
#292=AXIS2_PLACEMENT_3D('',#401,#325,#326);
#293=AXIS2_PLACEMENT_3D('',#402,#327,#328);
#294=AXIS2_PLACEMENT_3D('',#403,#329,#330);
#295=AXIS2_PLACEMENT_3D('',#404,#331,#332);
#296=AXIS2_PLACEMENT_3D('',#407,#334,#335);
#297=AXIS2_PLACEMENT_3D('',#410,#337,#338);
#298=AXIS2_PLACEMENT_3D('',#411,#339,#340);
#299=AXIS2_PLACEMENT_3D('',#412,#341,#342);
#300=AXIS2_PLACEMENT_3D('',#425,#349,#350);
#301=AXIS2_PLACEMENT_3D('',#431,#354,#355);
#302=AXIS2_PLACEMENT_3D('',#435,#358,#359);
#303=AXIS2_PLACEMENT_3D('',#439,#362,#363);
#304=AXIS2_PLACEMENT_3D('',#443,#366,#367);
#305=AXIS2_PLACEMENT_3D('',#447,#370,#371);
#306=AXIS2_PLACEMENT_3D('',#449,#373,#374);
#307=AXIS2_PLACEMENT_3D('',#450,#375,#376);
#308=AXIS2_PLACEMENT_3D('',#451,#377,#378);
#309=AXIS2_PLACEMENT_3D('',#456,#381,#382);
#310=AXIS2_PLACEMENT_3D('',#457,#383,#384);
#311=AXIS2_PLACEMENT_3D('',#458,#385,#386);
#312=AXIS2_PLACEMENT_3D('',#459,#387,#388);
#313=DIRECTION('',(0.,0.,1.));
#314=DIRECTION('',(1.,0.,0.));
#315=DIRECTION('',(0.,0.,1.));
#316=DIRECTION('',(1.,0.,0.));
#317=DIRECTION('',(0.,0.,1.));
#318=DIRECTION('',(1.,0.,0.));
#319=DIRECTION('',(0.,0.,1.));
#320=DIRECTION('',(-1.,0.,0.));
#321=DIRECTION('',(0.,0.,-1.));
#322=DIRECTION('',(0.,0.,1.));
#323=DIRECTION('',(-1.,0.,0.));
#324=DIRECTION('',(0.,0.,-1.));
#325=DIRECTION('',(0.,0.,1.));
#326=DIRECTION('',(1.,0.,0.));
#327=DIRECTION('',(0.,0.,-1.));
#328=DIRECTION('',(-1.,0.,0.));
#329=DIRECTION('',(0.,0.,-1.));
#330=DIRECTION('',(-1.,0.,0.));
#331=DIRECTION('',(0.,0.,1.));
#332=DIRECTION('',(1.,0.,0.));
#333=DIRECTION('',(0.866025403784429,0.,0.500000000000017));
#334=DIRECTION('',(0.,0.,-1.));
#335=DIRECTION('',(-1.,0.,0.));
#336=DIRECTION('',(-0.866025403784429,0.,0.500000000000017));
#337=DIRECTION('',(0.,0.,1.));
#338=DIRECTION('',(1.,0.,-1.72279132190847E-17));
#339=DIRECTION('',(0.,0.,1.));
#340=DIRECTION('',(-1.,0.,0.));
#341=DIRECTION('',(0.,0.,1.));
#342=DIRECTION('',(1.,0.,-1.72279132190847E-17));
#343=DIRECTION('',(-0.500000000000017,0.866025403784429,0.));
#344=DIRECTION('',(-1.,0.,0.));
#345=DIRECTION('',(-0.500000000000017,-0.866025403784429,0.));
#346=DIRECTION('',(0.500000000000017,-0.866025403784429,0.));
#347=DIRECTION('',(1.,0.,0.));
#348=DIRECTION('',(0.500000000000017,0.866025403784429,0.));
#349=DIRECTION('',(0.,0.,1.));
#350=DIRECTION('',(1.,0.,0.));
#351=DIRECTION('',(0.,0.,1.));
#352=DIRECTION('',(0.500000000000017,0.866025403784429,0.));
#353=DIRECTION('',(0.,0.,1.));
#354=DIRECTION('',(-0.866025403784429,0.500000000000017,0.));
#355=DIRECTION('',(-0.500000000000017,-0.866025403784429,0.));
#356=DIRECTION('',(-0.500000000000017,0.866025403784429,0.));
#357=DIRECTION('',(0.,0.,1.));
#358=DIRECTION('',(-0.866025403784429,-0.500000000000017,0.));
#359=DIRECTION('',(0.500000000000017,-0.866025403784429,0.));
#360=DIRECTION('',(-1.,0.,0.));
#361=DIRECTION('',(0.,0.,1.));
#362=DIRECTION('',(0.,-1.,0.));
#363=DIRECTION('',(1.,0.,0.));
#364=DIRECTION('',(-0.500000000000017,-0.866025403784429,0.));
#365=DIRECTION('',(0.,0.,1.));
#366=DIRECTION('',(0.866025403784429,-0.500000000000017,0.));
#367=DIRECTION('',(0.500000000000017,0.866025403784429,0.));
#368=DIRECTION('',(0.500000000000017,-0.866025403784429,0.));
#369=DIRECTION('',(0.,0.,1.));
#370=DIRECTION('',(0.866025403784429,0.500000000000017,0.));
#371=DIRECTION('',(-0.500000000000017,0.866025403784429,0.));
#372=DIRECTION('',(1.,0.,0.));
#373=DIRECTION('',(0.,1.,0.));
#374=DIRECTION('',(-1.,0.,0.));
#375=DIRECTION('',(0.,0.,-1.));
#376=DIRECTION('',(-1.,0.,0.));
#377=DIRECTION('',(0.,0.,-1.));
#378=DIRECTION('',(-1.,0.,0.));
#379=DIRECTION('',(-0.707106781186547,0.,0.707106781186547));
#380=DIRECTION('',(0.707106781186547,0.,0.707106781186547));
#381=DIRECTION('',(0.,0.,-1.));
#382=DIRECTION('',(-1.,0.,3.11704742376666E-17));
#383=DIRECTION('',(0.,0.,1.));
#384=DIRECTION('',(-1.,0.,0.));
#385=DIRECTION('',(0.,0.,-1.));
#386=DIRECTION('',(-1.,0.,3.11704742376666E-17));
#387=DIRECTION('',(0.,0.,1.));
#388=DIRECTION('',(1.,0.,0.));
#389=CARTESIAN_POINT('',(0.,0.,0.));
#390=CARTESIAN_POINT('',(0.,0.,0.));
#391=CARTESIAN_POINT('',(0.,0.,0.));
#392=CARTESIAN_POINT('',(0.,0.,0.));
#393=CARTESIAN_POINT('',(0.,0.,0.2886751345948));
#394=CARTESIAN_POINT('',(-2.,0.,0.2886751345948));
#395=CARTESIAN_POINT('',(2.,0.,0.2886751345948));
#396=CARTESIAN_POINT('',(2.,0.,0.2886751345948));
#397=CARTESIAN_POINT('',(2.,0.,3.5));
#398=CARTESIAN_POINT('',(0.,0.,3.5));
#399=CARTESIAN_POINT('',(-2.,0.,3.5));
#400=CARTESIAN_POINT('',(-2.,0.,0.2886751345948));
#401=CARTESIAN_POINT('',(0.,0.,-0.2));
#402=CARTESIAN_POINT('',(0.,0.,3.5));
#403=CARTESIAN_POINT('',(0.,0.,0.2886751345948));
#404=CARTESIAN_POINT('',(0.,0.,-0.2));
#405=CARTESIAN_POINT('',(1.5,0.,0.));
#406=CARTESIAN_POINT('',(1.5,0.,0.));
#407=CARTESIAN_POINT('',(0.,0.,0.));
#408=CARTESIAN_POINT('',(-1.5,0.,0.));
#409=CARTESIAN_POINT('',(-1.5,0.,0.));
#410=CARTESIAN_POINT('',(0.,0.,0.1443375672974));
#411=CARTESIAN_POINT('',(0.,0.,0.));
#412=CARTESIAN_POINT('',(0.,0.,0.1443375672974));
#413=CARTESIAN_POINT('',(-0.5773502691896,-1.,0.));
#414=CARTESIAN_POINT('',(-0.5773502691896,-1.,0.));
#415=CARTESIAN_POINT('',(-1.154700538379,0.,0.));
#416=CARTESIAN_POINT('',(0.5773502691896,-1.,0.));
#417=CARTESIAN_POINT('',(0.5773502691896,-1.,0.));
#418=CARTESIAN_POINT('',(1.154700538379,0.,0.));
#419=CARTESIAN_POINT('',(1.154700538379,0.,0.));
#420=CARTESIAN_POINT('',(0.5773502691896,1.,0.));
#421=CARTESIAN_POINT('',(0.5773502691896,1.,0.));
#422=CARTESIAN_POINT('',(-0.5773502691896,1.,0.));
#423=CARTESIAN_POINT('',(-0.5773502691896,1.,0.));
#424=CARTESIAN_POINT('',(-1.154700538379,0.,0.));
#425=CARTESIAN_POINT('',(0.,0.,0.));
#426=CARTESIAN_POINT('',(-0.5773502691896,1.,0.));
#427=CARTESIAN_POINT('',(-0.5773502691896,1.,2.));
#428=CARTESIAN_POINT('',(-1.154700538379,0.,2.));
#429=CARTESIAN_POINT('',(-1.154700538379,0.,2.));
#430=CARTESIAN_POINT('',(-1.154700538379,0.,0.));
#431=CARTESIAN_POINT('',(-1.154700538379,0.,0.));
#432=CARTESIAN_POINT('',(-0.5773502691896,-1.,2.));
#433=CARTESIAN_POINT('',(-0.5773502691896,-1.,2.));
#434=CARTESIAN_POINT('',(-0.5773502691896,-1.,0.));
#435=CARTESIAN_POINT('',(-0.5773502691896,-1.,0.));
#436=CARTESIAN_POINT('',(0.5773502691896,-1.,2.));
#437=CARTESIAN_POINT('',(0.5773502691896,-1.,2.));
#438=CARTESIAN_POINT('',(0.5773502691896,-1.,0.));
#439=CARTESIAN_POINT('',(0.5773502691896,-1.,0.));
#440=CARTESIAN_POINT('',(1.154700538379,0.,2.));
#441=CARTESIAN_POINT('',(1.154700538379,0.,2.));
#442=CARTESIAN_POINT('',(1.154700538379,0.,0.));
#443=CARTESIAN_POINT('',(1.154700538379,0.,0.));
#444=CARTESIAN_POINT('',(0.5773502691896,1.,2.));
#445=CARTESIAN_POINT('',(0.5773502691896,1.,2.));
#446=CARTESIAN_POINT('',(0.5773502691896,1.,0.));
#447=CARTESIAN_POINT('',(0.5773502691896,1.,0.));
#448=CARTESIAN_POINT('',(-0.5773502691896,1.,2.));
#449=CARTESIAN_POINT('',(-0.5773502691896,1.,0.));
#450=CARTESIAN_POINT('',(0.,0.,2.));
#451=CARTESIAN_POINT('',(0.,0.,4.));
#452=CARTESIAN_POINT('',(-1.5,0.,4.));
#453=CARTESIAN_POINT('',(1.5,0.,4.));
#454=CARTESIAN_POINT('',(2.,0.,3.5));
#455=CARTESIAN_POINT('',(-2.,0.,3.5));
#456=CARTESIAN_POINT('',(0.,0.,3.75));
#457=CARTESIAN_POINT('',(0.,0.,4.));
#458=CARTESIAN_POINT('',(0.,0.,3.75));
#459=CARTESIAN_POINT('',(0.,0.,4.));
#460=MECHANICAL_DESIGN_GEOMETRIC_PRESENTATION_REPRESENTATION('',(#276,#277,
#278,#279),#461);
#461=(
GEOMETRIC_REPRESENTATION_CONTEXT(3)
GLOBAL_UNCERTAINTY_ASSIGNED_CONTEXT((#462))
GLOBAL_UNIT_ASSIGNED_CONTEXT((#468,#464,#463))
REPRESENTATION_CONTEXT('HSS04004G','TOP_LEVEL_ASSEMBLY_PART')
);
#462=UNCERTAINTY_MEASURE_WITH_UNIT(LENGTH_MEASURE(2.E-5),#468,
'DISTANCE_ACCURACY_VALUE','Maximum Tolerance applied to model');
#463=(
NAMED_UNIT(*)
SI_UNIT($,.STERADIAN.)
SOLID_ANGLE_UNIT()
);
#464=(
CONVERSION_BASED_UNIT('DEGREE',#466)
NAMED_UNIT(#465)
PLANE_ANGLE_UNIT()
);
#465=DIMENSIONAL_EXPONENTS(0.,0.,0.,0.,0.,0.,0.);
#466=PLANE_ANGLE_MEASURE_WITH_UNIT(PLANE_ANGLE_MEASURE(0.0174532925),#467);
#467=(
NAMED_UNIT(*)
PLANE_ANGLE_UNIT()
SI_UNIT($,.RADIAN.)
);
#468=(
LENGTH_UNIT()
NAMED_UNIT(*)
SI_UNIT(.MILLI.,.METRE.)
);
ENDSEC;
END-ISO-10303-21;
