ISO-10303-21;
HEADER;
/* Generated by software containing ST-Developer
 * from STEP Tools, Inc. (www.steptools.com) 
 */
/* OPTION: using custom schema-name function */

FILE_DESCRIPTION(
/* description */ (''),
/* implementation_level */ '2;1');

FILE_NAME(
/* name */ 'GW04005F.stp',
/* time_stamp */ '2022-02-03T10:43:29+09:00',
/* author */ (''),
/* organization */ (''),
/* preprocessor_version */ 'ST-DEVELOPER v16',
/* originating_system */ 'SIEMENS PLM Software NX 10.0',
/* authorisation */ '');

FILE_SCHEMA (('AUTOMOTIVE_DESIGN { 1 0 10303 214 3 1 1 1 }'));
ENDSEC;

DATA;
#10=CONSTRUCTIVE_GEOMETRY_REPRESENTATION_RELATIONSHIP(
'supplemental geometry','',#26,#11);
#11=CONSTRUCTIVE_GEOMETRY_REPRESENTATION('supplemental geometry',(#354,
#355),#597);
#12=GEOMETRICALLY_BOUNDED_WIREFRAME_SHAPE_REPRESENTATION(
'GW04005F-None',(#27),#597);
#13=SHAPE_REPRESENTATION_RELATIONSHIP('None',
'relationship between GW04005F-None and GW04005F-None',#26,#15);
#14=SHAPE_REPRESENTATION_RELATIONSHIP('None',
'relationship between GW04005F-None and GW04005F-None',#26,#12);
#15=ADVANCED_BREP_SHAPE_REPRESENTATION('GW04005F-None',(#33),#597);
#16=SHAPE_DEFINITION_REPRESENTATION(#17,#26);
#17=PRODUCT_DEFINITION_SHAPE('','',#18);
#18=PRODUCT_DEFINITION('part definition','',#20,#19);
#19=PRODUCT_DEFINITION_CONTEXT('part definition',#25,'design');
#20=PRODUCT_DEFINITION_FORMATION_WITH_SPECIFIED_SOURCE(' ',' ',#22,
 .NOT_KNOWN.);
#21=PRODUCT_RELATED_PRODUCT_CATEGORY('part','',(#22));
#22=PRODUCT('GW04005F','GW04005F','NOT SPECIFIED',(#23));
#23=PRODUCT_CONTEXT('',#25,'mechanical');
#24=APPLICATION_PROTOCOL_DEFINITION('international standard',
'automotive_design',2010,#25);
#25=APPLICATION_CONTEXT(
'core data for automotive mechanical design processes');
#26=SHAPE_REPRESENTATION('GW04005F-None',(#353),#597);
#27=GEOMETRIC_CURVE_SET('None',(#505));
#28=SURFACE_STYLE_USAGE(.BOTH.,#29);
#29=SURFACE_SIDE_STYLE('',(#30));
#30=SURFACE_STYLE_FILL_AREA(#31);
#31=FILL_AREA_STYLE('',(#32));
#32=FILL_AREA_STYLE_COLOUR('',#336);
#33=MANIFOLD_SOLID_BREP('',#34);
#34=CLOSED_SHELL('',(#93,#94,#95,#96,#97,#98,#99,#100,#101,#102,#103,#104,
#105,#106,#107,#108,#109,#110,#111,#112));
#35=FACE_BOUND('',#144,.T.);
#36=FACE_BOUND('',#145,.T.);
#37=FACE_BOUND('',#149,.T.);
#38=FACE_BOUND('',#150,.T.);
#39=TOROIDAL_SURFACE('',#364,2.16,0.16);
#40=TOROIDAL_SURFACE('',#372,3.845,0.155);
#41=TOROIDAL_SURFACE('',#378,3.845,0.155);
#42=TOROIDAL_SURFACE('',#389,3.845,0.155);
#43=TOROIDAL_SURFACE('',#392,3.845,0.155);
#44=TOROIDAL_SURFACE('',#394,2.16,0.16);
#45=CYLINDRICAL_SURFACE('',#360,2.);
#46=CYLINDRICAL_SURFACE('',#374,4.);
#47=CYLINDRICAL_SURFACE('',#391,4.);
#48=CYLINDRICAL_SURFACE('',#395,2.);
#49=LINE('',#513,#71);
#50=LINE('',#515,#72);
#51=LINE('',#537,#73);
#52=LINE('',#539,#74);
#53=LINE('',#550,#75);
#54=LINE('',#553,#76);
#55=LINE('',#555,#77);
#56=LINE('',#557,#78);
#57=LINE('',#559,#79);
#58=LINE('',#561,#80);
#59=LINE('',#563,#81);
#60=LINE('',#565,#82);
#61=LINE('',#567,#83);
#62=LINE('',#569,#84);
#63=LINE('',#571,#85);
#64=LINE('',#573,#86);
#65=LINE('',#575,#87);
#66=LINE('',#577,#88);
#67=LINE('',#579,#89);
#68=LINE('',#581,#90);
#69=LINE('',#583,#91);
#70=LINE('',#585,#92);
#71=VECTOR('',#408,1.);
#72=VECTOR('',#409,1.);
#73=VECTOR('',#438,1.);
#74=VECTOR('',#439,1.);
#75=VECTOR('',#454,1.);
#76=VECTOR('',#455,1.);
#77=VECTOR('',#456,1.);
#78=VECTOR('',#457,1.);
#79=VECTOR('',#458,1.);
#80=VECTOR('',#459,1.);
#81=VECTOR('',#462,1.);
#82=VECTOR('',#463,1.);
#83=VECTOR('',#464,1.);
#84=VECTOR('',#467,1.);
#85=VECTOR('',#468,1.);
#86=VECTOR('',#471,1.);
#87=VECTOR('',#472,1.);
#88=VECTOR('',#475,1.);
#89=VECTOR('',#476,1.);
#90=VECTOR('',#479,1.);
#91=VECTOR('',#480,1.);
#92=VECTOR('',#483,1.);
#93=ADVANCED_FACE('',(#123),#113,.T.);
#94=ADVANCED_FACE('',(#124),#45,.T.);
#95=ADVANCED_FACE('',(#125),#39,.F.);
#96=ADVANCED_FACE('',(#35,#36),#114,.T.);
#97=ADVANCED_FACE('',(#126),#40,.T.);
#98=ADVANCED_FACE('',(#127),#46,.T.);
#99=ADVANCED_FACE('',(#128),#41,.T.);
#100=ADVANCED_FACE('',(#37,#38),#115,.F.);
#101=ADVANCED_FACE('',(#129),#116,.F.);
#102=ADVANCED_FACE('',(#130),#117,.F.);
#103=ADVANCED_FACE('',(#131),#118,.F.);
#104=ADVANCED_FACE('',(#132),#119,.F.);
#105=ADVANCED_FACE('',(#133),#120,.F.);
#106=ADVANCED_FACE('',(#134),#121,.F.);
#107=ADVANCED_FACE('',(#135),#122,.T.);
#108=ADVANCED_FACE('',(#136),#42,.T.);
#109=ADVANCED_FACE('',(#137),#47,.T.);
#110=ADVANCED_FACE('',(#138),#43,.T.);
#111=ADVANCED_FACE('',(#139),#44,.F.);
#112=ADVANCED_FACE('',(#140),#48,.T.);
#113=PLANE('',#358);
#114=PLANE('',#368);
#115=PLANE('',#380);
#116=PLANE('',#381);
#117=PLANE('',#382);
#118=PLANE('',#383);
#119=PLANE('',#384);
#120=PLANE('',#385);
#121=PLANE('',#386);
#122=PLANE('',#387);
#123=FACE_OUTER_BOUND('',#141,.T.);
#124=FACE_OUTER_BOUND('',#142,.T.);
#125=FACE_OUTER_BOUND('',#143,.T.);
#126=FACE_OUTER_BOUND('',#146,.T.);
#127=FACE_OUTER_BOUND('',#147,.T.);
#128=FACE_OUTER_BOUND('',#148,.T.);
#129=FACE_OUTER_BOUND('',#151,.T.);
#130=FACE_OUTER_BOUND('',#152,.T.);
#131=FACE_OUTER_BOUND('',#153,.T.);
#132=FACE_OUTER_BOUND('',#154,.T.);
#133=FACE_OUTER_BOUND('',#155,.T.);
#134=FACE_OUTER_BOUND('',#156,.T.);
#135=FACE_OUTER_BOUND('',#157,.T.);
#136=FACE_OUTER_BOUND('',#158,.T.);
#137=FACE_OUTER_BOUND('',#159,.T.);
#138=FACE_OUTER_BOUND('',#160,.T.);
#139=FACE_OUTER_BOUND('',#161,.T.);
#140=FACE_OUTER_BOUND('',#162,.T.);
#141=EDGE_LOOP('',(#163,#164));
#142=EDGE_LOOP('',(#165,#166,#167,#168));
#143=EDGE_LOOP('',(#169,#170,#171,#172));
#144=EDGE_LOOP('',(#173,#174));
#145=EDGE_LOOP('',(#175,#176));
#146=EDGE_LOOP('',(#177,#178,#179,#180));
#147=EDGE_LOOP('',(#181,#182,#183,#184));
#148=EDGE_LOOP('',(#185,#186,#187,#188));
#149=EDGE_LOOP('',(#189,#190));
#150=EDGE_LOOP('',(#191,#192,#193,#194,#195,#196));
#151=EDGE_LOOP('',(#197,#198,#199,#200));
#152=EDGE_LOOP('',(#201,#202,#203,#204));
#153=EDGE_LOOP('',(#205,#206,#207,#208));
#154=EDGE_LOOP('',(#209,#210,#211,#212));
#155=EDGE_LOOP('',(#213,#214,#215,#216));
#156=EDGE_LOOP('',(#217,#218,#219,#220));
#157=EDGE_LOOP('',(#221,#222,#223,#224,#225,#226));
#158=EDGE_LOOP('',(#227,#228,#229,#230));
#159=EDGE_LOOP('',(#231,#232,#233,#234));
#160=EDGE_LOOP('',(#235,#236,#237,#238));
#161=EDGE_LOOP('',(#239,#240,#241,#242));
#162=EDGE_LOOP('',(#243,#244,#245,#246));
#163=ORIENTED_EDGE('',*,*,#273,.T.);
#164=ORIENTED_EDGE('',*,*,#274,.F.);
#165=ORIENTED_EDGE('',*,*,#275,.F.);
#166=ORIENTED_EDGE('',*,*,#274,.T.);
#167=ORIENTED_EDGE('',*,*,#276,.T.);
#168=ORIENTED_EDGE('',*,*,#277,.T.);
#169=ORIENTED_EDGE('',*,*,#278,.F.);
#170=ORIENTED_EDGE('',*,*,#277,.F.);
#171=ORIENTED_EDGE('',*,*,#279,.T.);
#172=ORIENTED_EDGE('',*,*,#280,.T.);
#173=ORIENTED_EDGE('',*,*,#281,.F.);
#174=ORIENTED_EDGE('',*,*,#282,.F.);
#175=ORIENTED_EDGE('',*,*,#280,.F.);
#176=ORIENTED_EDGE('',*,*,#283,.F.);
#177=ORIENTED_EDGE('',*,*,#284,.F.);
#178=ORIENTED_EDGE('',*,*,#282,.T.);
#179=ORIENTED_EDGE('',*,*,#285,.T.);
#180=ORIENTED_EDGE('',*,*,#286,.F.);
#181=ORIENTED_EDGE('',*,*,#287,.F.);
#182=ORIENTED_EDGE('',*,*,#286,.T.);
#183=ORIENTED_EDGE('',*,*,#288,.T.);
#184=ORIENTED_EDGE('',*,*,#289,.F.);
#185=ORIENTED_EDGE('',*,*,#290,.F.);
#186=ORIENTED_EDGE('',*,*,#289,.T.);
#187=ORIENTED_EDGE('',*,*,#291,.T.);
#188=ORIENTED_EDGE('',*,*,#292,.F.);
#189=ORIENTED_EDGE('',*,*,#293,.T.);
#190=ORIENTED_EDGE('',*,*,#292,.T.);
#191=ORIENTED_EDGE('',*,*,#294,.F.);
#192=ORIENTED_EDGE('',*,*,#295,.F.);
#193=ORIENTED_EDGE('',*,*,#296,.F.);
#194=ORIENTED_EDGE('',*,*,#297,.F.);
#195=ORIENTED_EDGE('',*,*,#298,.F.);
#196=ORIENTED_EDGE('',*,*,#299,.F.);
#197=ORIENTED_EDGE('',*,*,#300,.T.);
#198=ORIENTED_EDGE('',*,*,#301,.F.);
#199=ORIENTED_EDGE('',*,*,#302,.F.);
#200=ORIENTED_EDGE('',*,*,#299,.T.);
#201=ORIENTED_EDGE('',*,*,#302,.T.);
#202=ORIENTED_EDGE('',*,*,#303,.F.);
#203=ORIENTED_EDGE('',*,*,#304,.F.);
#204=ORIENTED_EDGE('',*,*,#294,.T.);
#205=ORIENTED_EDGE('',*,*,#304,.T.);
#206=ORIENTED_EDGE('',*,*,#305,.F.);
#207=ORIENTED_EDGE('',*,*,#306,.F.);
#208=ORIENTED_EDGE('',*,*,#295,.T.);
#209=ORIENTED_EDGE('',*,*,#306,.T.);
#210=ORIENTED_EDGE('',*,*,#307,.F.);
#211=ORIENTED_EDGE('',*,*,#308,.F.);
#212=ORIENTED_EDGE('',*,*,#296,.T.);
#213=ORIENTED_EDGE('',*,*,#308,.T.);
#214=ORIENTED_EDGE('',*,*,#309,.F.);
#215=ORIENTED_EDGE('',*,*,#310,.F.);
#216=ORIENTED_EDGE('',*,*,#297,.T.);
#217=ORIENTED_EDGE('',*,*,#310,.T.);
#218=ORIENTED_EDGE('',*,*,#311,.F.);
#219=ORIENTED_EDGE('',*,*,#300,.F.);
#220=ORIENTED_EDGE('',*,*,#298,.T.);
#221=ORIENTED_EDGE('',*,*,#311,.T.);
#222=ORIENTED_EDGE('',*,*,#309,.T.);
#223=ORIENTED_EDGE('',*,*,#307,.T.);
#224=ORIENTED_EDGE('',*,*,#305,.T.);
#225=ORIENTED_EDGE('',*,*,#303,.T.);
#226=ORIENTED_EDGE('',*,*,#301,.T.);
#227=ORIENTED_EDGE('',*,*,#291,.F.);
#228=ORIENTED_EDGE('',*,*,#312,.T.);
#229=ORIENTED_EDGE('',*,*,#290,.T.);
#230=ORIENTED_EDGE('',*,*,#293,.F.);
#231=ORIENTED_EDGE('',*,*,#288,.F.);
#232=ORIENTED_EDGE('',*,*,#313,.T.);
#233=ORIENTED_EDGE('',*,*,#287,.T.);
#234=ORIENTED_EDGE('',*,*,#312,.F.);
#235=ORIENTED_EDGE('',*,*,#285,.F.);
#236=ORIENTED_EDGE('',*,*,#281,.T.);
#237=ORIENTED_EDGE('',*,*,#284,.T.);
#238=ORIENTED_EDGE('',*,*,#313,.F.);
#239=ORIENTED_EDGE('',*,*,#279,.F.);
#240=ORIENTED_EDGE('',*,*,#314,.F.);
#241=ORIENTED_EDGE('',*,*,#278,.T.);
#242=ORIENTED_EDGE('',*,*,#283,.T.);
#243=ORIENTED_EDGE('',*,*,#276,.F.);
#244=ORIENTED_EDGE('',*,*,#273,.F.);
#245=ORIENTED_EDGE('',*,*,#275,.T.);
#246=ORIENTED_EDGE('',*,*,#314,.T.);
#247=VERTEX_POINT('',#509);
#248=VERTEX_POINT('',#510);
#249=VERTEX_POINT('',#514);
#250=VERTEX_POINT('',#516);
#251=VERTEX_POINT('',#520);
#252=VERTEX_POINT('',#522);
#253=VERTEX_POINT('',#526);
#254=VERTEX_POINT('',#527);
#255=VERTEX_POINT('',#532);
#256=VERTEX_POINT('',#534);
#257=VERTEX_POINT('',#538);
#258=VERTEX_POINT('',#540);
#259=VERTEX_POINT('',#544);
#260=VERTEX_POINT('',#546);
#261=VERTEX_POINT('',#551);
#262=VERTEX_POINT('',#552);
#263=VERTEX_POINT('',#554);
#264=VERTEX_POINT('',#556);
#265=VERTEX_POINT('',#558);
#266=VERTEX_POINT('',#560);
#267=VERTEX_POINT('',#564);
#268=VERTEX_POINT('',#566);
#269=VERTEX_POINT('',#570);
#270=VERTEX_POINT('',#574);
#271=VERTEX_POINT('',#578);
#272=VERTEX_POINT('',#582);
#273=EDGE_CURVE('',#247,#248,#315,.T.);
#274=EDGE_CURVE('',#247,#248,#316,.T.);
#275=EDGE_CURVE('',#247,#249,#49,.T.);
#276=EDGE_CURVE('',#248,#250,#50,.T.);
#277=EDGE_CURVE('',#250,#249,#317,.T.);
#278=EDGE_CURVE('',#249,#251,#318,.T.);
#279=EDGE_CURVE('',#250,#252,#319,.T.);
#280=EDGE_CURVE('',#252,#251,#320,.T.);
#281=EDGE_CURVE('',#253,#254,#321,.T.);
#282=EDGE_CURVE('',#254,#253,#322,.T.);
#283=EDGE_CURVE('',#251,#252,#323,.T.);
#284=EDGE_CURVE('',#254,#255,#324,.T.);
#285=EDGE_CURVE('',#253,#256,#325,.T.);
#286=EDGE_CURVE('',#255,#256,#326,.T.);
#287=EDGE_CURVE('',#255,#257,#51,.T.);
#288=EDGE_CURVE('',#256,#258,#52,.T.);
#289=EDGE_CURVE('',#257,#258,#327,.T.);
#290=EDGE_CURVE('',#257,#259,#328,.T.);
#291=EDGE_CURVE('',#258,#260,#329,.T.);
#292=EDGE_CURVE('',#259,#260,#330,.T.);
#293=EDGE_CURVE('',#260,#259,#331,.T.);
#294=EDGE_CURVE('',#261,#262,#53,.T.);
#295=EDGE_CURVE('',#263,#261,#54,.T.);
#296=EDGE_CURVE('',#264,#263,#55,.T.);
#297=EDGE_CURVE('',#265,#264,#56,.T.);
#298=EDGE_CURVE('',#266,#265,#57,.T.);
#299=EDGE_CURVE('',#262,#266,#58,.T.);
#300=EDGE_CURVE('',#266,#267,#59,.T.);
#301=EDGE_CURVE('',#268,#267,#60,.T.);
#302=EDGE_CURVE('',#262,#268,#61,.T.);
#303=EDGE_CURVE('',#269,#268,#62,.T.);
#304=EDGE_CURVE('',#261,#269,#63,.T.);
#305=EDGE_CURVE('',#270,#269,#64,.T.);
#306=EDGE_CURVE('',#263,#270,#65,.T.);
#307=EDGE_CURVE('',#271,#270,#66,.T.);
#308=EDGE_CURVE('',#264,#271,#67,.T.);
#309=EDGE_CURVE('',#272,#271,#68,.T.);
#310=EDGE_CURVE('',#265,#272,#69,.T.);
#311=EDGE_CURVE('',#267,#272,#70,.T.);
#312=EDGE_CURVE('',#258,#257,#332,.T.);
#313=EDGE_CURVE('',#256,#255,#333,.T.);
#314=EDGE_CURVE('',#249,#250,#334,.T.);
#315=CIRCLE('',#356,2.);
#316=CIRCLE('',#357,2.);
#317=CIRCLE('',#359,2.);
#318=CIRCLE('',#361,0.16);
#319=CIRCLE('',#362,0.16);
#320=CIRCLE('',#363,2.16);
#321=CIRCLE('',#365,3.845);
#322=CIRCLE('',#366,3.845);
#323=CIRCLE('',#367,2.16);
#324=CIRCLE('',#369,0.155);
#325=CIRCLE('',#370,0.155);
#326=CIRCLE('',#371,4.);
#327=CIRCLE('',#373,4.);
#328=CIRCLE('',#375,0.155);
#329=CIRCLE('',#376,0.155);
#330=CIRCLE('',#377,3.845);
#331=CIRCLE('',#379,3.845);
#332=CIRCLE('',#388,4.);
#333=CIRCLE('',#390,4.);
#334=CIRCLE('',#393,2.);
#335=COLOUR_RGB('Strong Stone',0.576470588235294,0.54508278019379,0.392156862745098);
#336=COLOUR_RGB('spare part',0.301960784313725,0.301960784313725,0.301960784313725);
#337=CURVE_STYLE('',#339,POSITIVE_LENGTH_MEASURE(0.13),#352);
#338=CURVE_STYLE('',#340,POSITIVE_LENGTH_MEASURE(0.13),#335);
#339=DRAUGHTING_PRE_DEFINED_CURVE_FONT('continuous');
#340=DRAUGHTING_PRE_DEFINED_CURVE_FONT('continuous');
#341=PRESENTATION_LAYER_ASSIGNMENT('1','Layer 1',(#505,#354,#355,#33));
#342=STYLED_ITEM('',(#346),#505);
#343=STYLED_ITEM('',(#347),#354);
#344=STYLED_ITEM('',(#348),#355);
#345=STYLED_ITEM('',(#349),#33);
#346=PRESENTATION_STYLE_ASSIGNMENT((#350));
#347=PRESENTATION_STYLE_ASSIGNMENT((#337));
#348=PRESENTATION_STYLE_ASSIGNMENT((#338));
#349=PRESENTATION_STYLE_ASSIGNMENT((#28));
#350=POINT_STYLE('',#351,POSITIVE_LENGTH_MEASURE(3.),#352);
#351=PRE_DEFINED_POINT_MARKER_SYMBOL('plus');
#352=DRAUGHTING_PRE_DEFINED_COLOUR('yellow');
#353=AXIS2_PLACEMENT_3D('',#504,#396,#397);
#354=AXIS2_PLACEMENT_3D('PCS',#506,#398,#399);
#355=AXIS2_PLACEMENT_3D('',#507,#400,#401);
#356=AXIS2_PLACEMENT_3D('',#508,#402,#403);
#357=AXIS2_PLACEMENT_3D('',#511,#404,#405);
#358=AXIS2_PLACEMENT_3D('',#512,#406,#407);
#359=AXIS2_PLACEMENT_3D('',#517,#410,#411);
#360=AXIS2_PLACEMENT_3D('',#518,#412,#413);
#361=AXIS2_PLACEMENT_3D('',#519,#414,#415);
#362=AXIS2_PLACEMENT_3D('',#521,#416,#417);
#363=AXIS2_PLACEMENT_3D('',#523,#418,#419);
#364=AXIS2_PLACEMENT_3D('',#524,#420,#421);
#365=AXIS2_PLACEMENT_3D('',#525,#422,#423);
#366=AXIS2_PLACEMENT_3D('',#528,#424,#425);
#367=AXIS2_PLACEMENT_3D('',#529,#426,#427);
#368=AXIS2_PLACEMENT_3D('',#530,#428,#429);
#369=AXIS2_PLACEMENT_3D('',#531,#430,#431);
#370=AXIS2_PLACEMENT_3D('',#533,#432,#433);
#371=AXIS2_PLACEMENT_3D('',#535,#434,#435);
#372=AXIS2_PLACEMENT_3D('',#536,#436,#437);
#373=AXIS2_PLACEMENT_3D('',#541,#440,#441);
#374=AXIS2_PLACEMENT_3D('',#542,#442,#443);
#375=AXIS2_PLACEMENT_3D('',#543,#444,#445);
#376=AXIS2_PLACEMENT_3D('',#545,#446,#447);
#377=AXIS2_PLACEMENT_3D('',#547,#448,#449);
#378=AXIS2_PLACEMENT_3D('',#548,#450,#451);
#379=AXIS2_PLACEMENT_3D('',#549,#452,#453);
#380=AXIS2_PLACEMENT_3D('',#562,#460,#461);
#381=AXIS2_PLACEMENT_3D('',#568,#465,#466);
#382=AXIS2_PLACEMENT_3D('',#572,#469,#470);
#383=AXIS2_PLACEMENT_3D('',#576,#473,#474);
#384=AXIS2_PLACEMENT_3D('',#580,#477,#478);
#385=AXIS2_PLACEMENT_3D('',#584,#481,#482);
#386=AXIS2_PLACEMENT_3D('',#586,#484,#485);
#387=AXIS2_PLACEMENT_3D('',#587,#486,#487);
#388=AXIS2_PLACEMENT_3D('',#588,#488,#489);
#389=AXIS2_PLACEMENT_3D('',#589,#490,#491);
#390=AXIS2_PLACEMENT_3D('',#590,#492,#493);
#391=AXIS2_PLACEMENT_3D('',#591,#494,#495);
#392=AXIS2_PLACEMENT_3D('',#592,#496,#497);
#393=AXIS2_PLACEMENT_3D('',#593,#498,#499);
#394=AXIS2_PLACEMENT_3D('',#594,#500,#501);
#395=AXIS2_PLACEMENT_3D('',#595,#502,#503);
#396=DIRECTION('',(0.,0.,1.));
#397=DIRECTION('',(1.,0.,0.));
#398=DIRECTION('',(0.,0.,1.));
#399=DIRECTION('',(1.,0.,0.));
#400=DIRECTION('',(0.,0.,1.));
#401=DIRECTION('',(1.,0.,0.));
#402=DIRECTION('',(0.,0.,1.));
#403=DIRECTION('',(0.,1.,0.));
#404=DIRECTION('',(0.,0.,-1.));
#405=DIRECTION('',(0.,1.,0.));
#406=DIRECTION('',(0.,0.,1.));
#407=DIRECTION('',(0.,1.,0.));
#408=DIRECTION('',(-4.886963981617E-14,0.,-1.));
#409=DIRECTION('',(4.897619557871E-14,0.,-1.));
#410=DIRECTION('',(0.,0.,1.));
#411=DIRECTION('',(0.,-1.,0.));
#412=DIRECTION('',(0.,0.,1.));
#413=DIRECTION('',(0.,1.,0.));
#414=DIRECTION('',(1.,0.,0.));
#415=DIRECTION('',(0.,-6.50521303491303E-14,-1.));
#416=DIRECTION('',(-1.,0.,0.));
#417=DIRECTION('',(0.,6.23416249179165E-14,-1.));
#418=DIRECTION('',(0.,0.,1.));
#419=DIRECTION('',(0.,-1.,0.));
#420=DIRECTION('',(0.,0.,1.));
#421=DIRECTION('',(0.00768832425475508,0.99997044439831,0.));
#422=DIRECTION('',(0.,0.,-1.));
#423=DIRECTION('',(0.,-1.,0.));
#424=DIRECTION('',(0.,0.,-1.));
#425=DIRECTION('',(0.,1.,0.));
#426=DIRECTION('',(0.,0.,1.));
#427=DIRECTION('',(0.,1.,0.));
#428=DIRECTION('',(0.,0.,1.));
#429=DIRECTION('',(0.,1.,0.));
#430=DIRECTION('',(-1.,-1.03595517581E-13,0.));
#431=DIRECTION('',(-1.03595517581E-13,0.999999999999998,0.));
#432=DIRECTION('',(1.,1.033760750613E-13,0.));
#433=DIRECTION('',(1.033760750613E-13,-0.999999999999998,0.));
#434=DIRECTION('',(0.,0.,-1.));
#435=DIRECTION('',(0.,1.,0.));
#436=DIRECTION('',(0.,0.,1.));
#437=DIRECTION('',(0.00369629158314012,-0.999993168690933,0.));
#438=DIRECTION('',(-4.058932228605E-13,0.,-1.));
#439=DIRECTION('',(4.046891206831E-13,0.,-1.));
#440=DIRECTION('',(0.,0.,-1.));
#441=DIRECTION('',(0.,1.,0.));
#442=DIRECTION('',(0.,0.,1.));
#443=DIRECTION('',(0.,1.,0.));
#444=DIRECTION('',(-1.,0.,0.));
#445=DIRECTION('',(0.,0.,-1.));
#446=DIRECTION('',(1.,0.,0.));
#447=DIRECTION('',(0.,0.,-1.));
#448=DIRECTION('',(0.,0.,-1.));
#449=DIRECTION('',(0.,1.,0.));
#450=DIRECTION('',(0.,0.,1.));
#451=DIRECTION('',(0.00546087285806727,-0.99998508932265,0.));
#452=DIRECTION('',(0.,0.,-1.));
#453=DIRECTION('',(0.,-1.,0.));
#454=DIRECTION('',(0.500000000000017,-0.866025403784429,0.));
#455=DIRECTION('',(1.,0.,0.));
#456=DIRECTION('',(0.500000000000017,0.866025403784429,0.));
#457=DIRECTION('',(-0.500000000000017,0.866025403784429,0.));
#458=DIRECTION('',(-1.,0.,0.));
#459=DIRECTION('',(-0.500000000000017,-0.866025403784429,0.));
#460=DIRECTION('',(0.,0.,1.));
#461=DIRECTION('',(0.,1.,0.));
#462=DIRECTION('',(0.,0.,1.));
#463=DIRECTION('',(-0.500000000000017,-0.866025403784429,0.));
#464=DIRECTION('',(0.,0.,1.));
#465=DIRECTION('',(0.866025403784429,-0.500000000000017,0.));
#466=DIRECTION('',(0.500000000000017,0.866025403784429,0.));
#467=DIRECTION('',(0.500000000000017,-0.866025403784429,0.));
#468=DIRECTION('',(0.,0.,1.));
#469=DIRECTION('',(0.866025403784429,0.500000000000017,0.));
#470=DIRECTION('',(-0.500000000000017,0.866025403784429,0.));
#471=DIRECTION('',(1.,0.,0.));
#472=DIRECTION('',(0.,0.,1.));
#473=DIRECTION('',(0.,1.,0.));
#474=DIRECTION('',(-1.,0.,0.));
#475=DIRECTION('',(0.500000000000017,0.866025403784429,0.));
#476=DIRECTION('',(0.,0.,1.));
#477=DIRECTION('',(-0.866025403784429,0.500000000000017,0.));
#478=DIRECTION('',(-0.500000000000017,-0.866025403784429,0.));
#479=DIRECTION('',(-0.500000000000017,0.866025403784429,0.));
#480=DIRECTION('',(0.,0.,1.));
#481=DIRECTION('',(-0.866025403784429,-0.500000000000017,0.));
#482=DIRECTION('',(0.500000000000017,-0.866025403784429,0.));
#483=DIRECTION('',(-1.,0.,0.));
#484=DIRECTION('',(0.,-1.,0.));
#485=DIRECTION('',(1.,0.,0.));
#486=DIRECTION('',(0.,0.,-1.));
#487=DIRECTION('',(0.,-1.,0.));
#488=DIRECTION('',(0.,0.,-1.));
#489=DIRECTION('',(0.,-1.,0.));
#490=DIRECTION('',(0.,0.,1.));
#491=DIRECTION('',(-0.00546087285806727,0.99998508932265,0.));
#492=DIRECTION('',(0.,0.,-1.));
#493=DIRECTION('',(0.,-1.,0.));
#494=DIRECTION('',(0.,0.,1.));
#495=DIRECTION('',(0.,1.,0.));
#496=DIRECTION('',(0.,0.,1.));
#497=DIRECTION('',(-0.00369629158314012,0.999993168690933,0.));
#498=DIRECTION('',(0.,0.,1.));
#499=DIRECTION('',(0.,1.,0.));
#500=DIRECTION('',(0.,0.,1.));
#501=DIRECTION('',(-0.00768832425475508,-0.99997044439831,0.));
#502=DIRECTION('',(0.,0.,1.));
#503=DIRECTION('',(0.,1.,0.));
#504=CARTESIAN_POINT('',(0.,0.,0.));
#505=CARTESIAN_POINT('',(0.,0.,0.));
#506=CARTESIAN_POINT('',(0.,0.,0.));
#507=CARTESIAN_POINT('',(0.,0.,0.));
#508=CARTESIAN_POINT('',(0.,0.,6.5));
#509=CARTESIAN_POINT('',(0.,2.,6.5));
#510=CARTESIAN_POINT('',(0.,-2.,6.5));
#511=CARTESIAN_POINT('',(0.,0.,6.5));
#512=CARTESIAN_POINT('',(0.,0.,6.5));
#513=CARTESIAN_POINT('',(0.,2.,6.5));
#514=CARTESIAN_POINT('',(0.,2.,1.66));
#515=CARTESIAN_POINT('',(0.,-2.,6.5));
#516=CARTESIAN_POINT('',(0.,-2.,1.66));
#517=CARTESIAN_POINT('',(0.,0.,1.66));
#518=CARTESIAN_POINT('',(0.,0.,-0.325));
#519=CARTESIAN_POINT('',(1.357594592299E-14,2.16,1.66));
#520=CARTESIAN_POINT('',(0.,2.16,1.5));
#521=CARTESIAN_POINT('',(-1.236163948981E-14,-2.16,1.66));
#522=CARTESIAN_POINT('',(0.,-2.16,1.5));
#523=CARTESIAN_POINT('',(0.,0.,1.5));
#524=CARTESIAN_POINT('',(0.,0.,1.66));
#525=CARTESIAN_POINT('',(0.,0.,1.5));
#526=CARTESIAN_POINT('',(0.,-3.845,1.5));
#527=CARTESIAN_POINT('',(0.,3.845,1.5));
#528=CARTESIAN_POINT('',(0.,0.,1.5));
#529=CARTESIAN_POINT('',(0.,0.,1.5));
#530=CARTESIAN_POINT('',(0.,0.,1.5));
#531=CARTESIAN_POINT('',(-3.983237351068E-13,3.845,1.345));
#532=CARTESIAN_POINT('',(0.,4.,1.345));
#533=CARTESIAN_POINT('',(3.974806594975E-13,-3.845,1.345));
#534=CARTESIAN_POINT('',(0.,-4.,1.345));
#535=CARTESIAN_POINT('',(0.,0.,1.345));
#536=CARTESIAN_POINT('',(0.,0.,1.345));
#537=CARTESIAN_POINT('',(1.115307123908E-14,4.,1.345));
#538=CARTESIAN_POINT('',(0.,4.,0.155));
#539=CARTESIAN_POINT('',(0.,-4.,1.345));
#540=CARTESIAN_POINT('',(0.,-4.,0.155));
#541=CARTESIAN_POINT('',(0.,0.,0.155));
#542=CARTESIAN_POINT('',(0.,0.,-0.325));
#543=CARTESIAN_POINT('',(0.,3.845,0.155));
#544=CARTESIAN_POINT('',(0.,3.845,0.));
#545=CARTESIAN_POINT('',(0.,-3.845,0.155));
#546=CARTESIAN_POINT('',(0.,-3.845,0.));
#547=CARTESIAN_POINT('',(0.,0.,0.));
#548=CARTESIAN_POINT('',(0.,0.,0.155));
#549=CARTESIAN_POINT('',(0.,0.,0.));
#550=CARTESIAN_POINT('',(0.5773502691896,1.,0.));
#551=CARTESIAN_POINT('',(0.5773502691896,1.,0.));
#552=CARTESIAN_POINT('',(1.154700538379,0.,0.));
#553=CARTESIAN_POINT('',(-0.5773502691896,1.,0.));
#554=CARTESIAN_POINT('',(-0.5773502691896,1.,0.));
#555=CARTESIAN_POINT('',(-1.154700538379,0.,0.));
#556=CARTESIAN_POINT('',(-1.154700538379,0.,0.));
#557=CARTESIAN_POINT('',(-0.5773502691896,-1.,0.));
#558=CARTESIAN_POINT('',(-0.5773502691896,-1.,0.));
#559=CARTESIAN_POINT('',(0.5773502691896,-1.,0.));
#560=CARTESIAN_POINT('',(0.5773502691896,-1.,0.));
#561=CARTESIAN_POINT('',(1.154700538379,0.,0.));
#562=CARTESIAN_POINT('',(0.,0.,0.));
#563=CARTESIAN_POINT('',(0.5773502691896,-1.,0.));
#564=CARTESIAN_POINT('',(0.5773502691896,-1.,2.));
#565=CARTESIAN_POINT('',(1.154700538379,0.,2.));
#566=CARTESIAN_POINT('',(1.154700538379,0.,2.));
#567=CARTESIAN_POINT('',(1.154700538379,0.,0.));
#568=CARTESIAN_POINT('',(1.154700538379,0.,0.));
#569=CARTESIAN_POINT('',(0.5773502691896,1.,2.));
#570=CARTESIAN_POINT('',(0.5773502691896,1.,2.));
#571=CARTESIAN_POINT('',(0.5773502691896,1.,0.));
#572=CARTESIAN_POINT('',(0.5773502691896,1.,0.));
#573=CARTESIAN_POINT('',(-0.5773502691896,1.,2.));
#574=CARTESIAN_POINT('',(-0.5773502691896,1.,2.));
#575=CARTESIAN_POINT('',(-0.5773502691896,1.,0.));
#576=CARTESIAN_POINT('',(-0.5773502691896,1.,0.));
#577=CARTESIAN_POINT('',(-1.154700538379,0.,2.));
#578=CARTESIAN_POINT('',(-1.154700538379,0.,2.));
#579=CARTESIAN_POINT('',(-1.154700538379,0.,0.));
#580=CARTESIAN_POINT('',(-1.154700538379,0.,0.));
#581=CARTESIAN_POINT('',(-0.5773502691896,-1.,2.));
#582=CARTESIAN_POINT('',(-0.5773502691896,-1.,2.));
#583=CARTESIAN_POINT('',(-0.5773502691896,-1.,0.));
#584=CARTESIAN_POINT('',(-0.5773502691896,-1.,0.));
#585=CARTESIAN_POINT('',(0.5773502691896,-1.,2.));
#586=CARTESIAN_POINT('',(0.5773502691896,-1.,0.));
#587=CARTESIAN_POINT('',(0.,0.,2.));
#588=CARTESIAN_POINT('',(0.,0.,0.155));
#589=CARTESIAN_POINT('',(0.,0.,0.155));
#590=CARTESIAN_POINT('',(0.,0.,1.345));
#591=CARTESIAN_POINT('',(0.,0.,-0.325));
#592=CARTESIAN_POINT('',(0.,0.,1.345));
#593=CARTESIAN_POINT('',(0.,0.,1.66));
#594=CARTESIAN_POINT('',(0.,0.,1.66));
#595=CARTESIAN_POINT('',(0.,0.,-0.325));
#596=MECHANICAL_DESIGN_GEOMETRIC_PRESENTATION_REPRESENTATION('',(#342,#343,
#344,#345),#597);
#597=(
GEOMETRIC_REPRESENTATION_CONTEXT(3)
GLOBAL_UNCERTAINTY_ASSIGNED_CONTEXT((#598))
GLOBAL_UNIT_ASSIGNED_CONTEXT((#604,#600,#599))
REPRESENTATION_CONTEXT('GW04005F','TOP_LEVEL_ASSEMBLY_PART')
);
#598=UNCERTAINTY_MEASURE_WITH_UNIT(LENGTH_MEASURE(2.E-5),#604,
'DISTANCE_ACCURACY_VALUE','Maximum Tolerance applied to model');
#599=(
NAMED_UNIT(*)
SI_UNIT($,.STERADIAN.)
SOLID_ANGLE_UNIT()
);
#600=(
CONVERSION_BASED_UNIT('DEGREE',#602)
NAMED_UNIT(#601)
PLANE_ANGLE_UNIT()
);
#601=DIMENSIONAL_EXPONENTS(0.,0.,0.,0.,0.,0.,0.);
#602=PLANE_ANGLE_MEASURE_WITH_UNIT(PLANE_ANGLE_MEASURE(0.0174532925),#603);
#603=(
NAMED_UNIT(*)
PLANE_ANGLE_UNIT()
SI_UNIT($,.RADIAN.)
);
#604=(
LENGTH_UNIT()
NAMED_UNIT(*)
SI_UNIT(.MILLI.,.METRE.)
);
ENDSEC;
END-ISO-10303-21;
