ISO-10303-21;
HEADER;
/* Generated by software containing ST-Developer
 * from STEP Tools, Inc. (www.steptools.com) 
 */
/* OPTION: using custom schema-name function */

FILE_DESCRIPTION(
/* description */ (''),
/* implementation_level */ '2;1');

FILE_NAME(
/* name */ 'TSS04505S.stp',
/* time_stamp */ '2022-02-03T10:43:16+09:00',
/* author */ (''),
/* organization */ (''),
/* preprocessor_version */ 'ST-DEVELOPER v16',
/* originating_system */ 'SIEMENS PLM Software NX 10.0',
/* authorisation */ '');

FILE_SCHEMA (('AUTOMOTIVE_DESIGN { 1 0 10303 214 3 1 1 1 }'));
ENDSEC;

DATA;
#10=CONSTRUCTIVE_GEOMETRY_REPRESENTATION_RELATIONSHIP(
'supplemental geometry','',#26,#11);
#11=CONSTRUCTIVE_GEOMETRY_REPRESENTATION('supplemental geometry',(#390,
#391),#683);
#12=GEOMETRICALLY_BOUNDED_WIREFRAME_SHAPE_REPRESENTATION(
'TSS04505S-None',(#27),#683);
#13=SHAPE_REPRESENTATION_RELATIONSHIP('None',
'relationship between TSS04505S-None and TSS04505S-None',#26,#15);
#14=SHAPE_REPRESENTATION_RELATIONSHIP('None',
'relationship between TSS04505S-None and TSS04505S-None',#26,#12);
#15=ADVANCED_BREP_SHAPE_REPRESENTATION('TSS04505S-None',(#33),#683);
#16=SHAPE_DEFINITION_REPRESENTATION(#17,#26);
#17=PRODUCT_DEFINITION_SHAPE('','',#18);
#18=PRODUCT_DEFINITION('part definition','',#20,#19);
#19=PRODUCT_DEFINITION_CONTEXT('part definition',#25,'design');
#20=PRODUCT_DEFINITION_FORMATION_WITH_SPECIFIED_SOURCE(' ',' ',#22,
 .NOT_KNOWN.);
#21=PRODUCT_RELATED_PRODUCT_CATEGORY('part','',(#22));
#22=PRODUCT('TSS04505S','TSS04505S','NOT SPECIFIED',(#23));
#23=PRODUCT_CONTEXT('',#25,'mechanical');
#24=APPLICATION_PROTOCOL_DEFINITION('international standard',
'automotive_design',2010,#25);
#25=APPLICATION_CONTEXT(
'core data for automotive mechanical design processes');
#26=SHAPE_REPRESENTATION('TSS04505S-None',(#389),#683);
#27=GEOMETRIC_CURVE_SET('None',(#576));
#28=SURFACE_STYLE_USAGE(.BOTH.,#29);
#29=SURFACE_SIDE_STYLE('',(#30));
#30=SURFACE_STYLE_FILL_AREA(#31);
#31=FILL_AREA_STYLE('',(#32));
#32=FILL_AREA_STYLE_COLOUR('',#372);
#33=MANIFOLD_SOLID_BREP('',#34);
#34=CLOSED_SHELL('',(#44,#45,#46,#47,#48,#49,#50,#51,#52,#53,#54,#55,#56,
#57,#58,#59,#60,#61,#62,#63,#64));
#35=PLANE('',#414);
#36=PLANE('',#439);
#37=PLANE('',#444);
#38=FACE_BOUND('',#103,.T.);
#39=FACE_BOUND('',#104,.T.);
#40=CONICAL_SURFACE('',#399,2.,60.);
#41=CONICAL_SURFACE('',#401,2.,60.);
#42=CONICAL_SURFACE('',#441,1.925,45.);
#43=CONICAL_SURFACE('',#443,1.925,45.);
#44=ADVANCED_FACE('',(#79),#65,.T.);
#45=ADVANCED_FACE('',(#80),#66,.T.);
#46=ADVANCED_FACE('',(#81),#40,.T.);
#47=ADVANCED_FACE('',(#82),#41,.T.);
#48=ADVANCED_FACE('',(#38,#39),#35,.F.);
#49=ADVANCED_FACE('',(#83),#67,.F.);
#50=ADVANCED_FACE('',(#84),#68,.T.);
#51=ADVANCED_FACE('',(#85),#69,.F.);
#52=ADVANCED_FACE('',(#86),#70,.T.);
#53=ADVANCED_FACE('',(#87),#71,.F.);
#54=ADVANCED_FACE('',(#88),#72,.T.);
#55=ADVANCED_FACE('',(#89),#73,.F.);
#56=ADVANCED_FACE('',(#90),#74,.T.);
#57=ADVANCED_FACE('',(#91),#75,.F.);
#58=ADVANCED_FACE('',(#92),#76,.T.);
#59=ADVANCED_FACE('',(#93),#77,.F.);
#60=ADVANCED_FACE('',(#94),#78,.T.);
#61=ADVANCED_FACE('',(#95),#36,.T.);
#62=ADVANCED_FACE('',(#96),#42,.T.);
#63=ADVANCED_FACE('',(#97),#43,.T.);
#64=ADVANCED_FACE('',(#98),#37,.T.);
#65=CYLINDRICAL_SURFACE('',#394,2.25);
#66=CYLINDRICAL_SURFACE('',#397,2.25);
#67=CYLINDRICAL_SURFACE('',#416,0.254);
#68=CYLINDRICAL_SURFACE('',#418,0.5839826152726);
#69=CYLINDRICAL_SURFACE('',#420,0.254);
#70=CYLINDRICAL_SURFACE('',#422,0.5839826152726);
#71=CYLINDRICAL_SURFACE('',#424,0.254);
#72=CYLINDRICAL_SURFACE('',#426,0.5839826152726);
#73=CYLINDRICAL_SURFACE('',#428,0.254);
#74=CYLINDRICAL_SURFACE('',#430,0.5839826152726);
#75=CYLINDRICAL_SURFACE('',#432,0.254);
#76=CYLINDRICAL_SURFACE('',#434,0.5839826152726);
#77=CYLINDRICAL_SURFACE('',#436,0.254);
#78=CYLINDRICAL_SURFACE('',#438,0.5839826152726);
#79=FACE_OUTER_BOUND('',#99,.T.);
#80=FACE_OUTER_BOUND('',#100,.T.);
#81=FACE_OUTER_BOUND('',#101,.T.);
#82=FACE_OUTER_BOUND('',#102,.T.);
#83=FACE_OUTER_BOUND('',#105,.T.);
#84=FACE_OUTER_BOUND('',#106,.T.);
#85=FACE_OUTER_BOUND('',#107,.T.);
#86=FACE_OUTER_BOUND('',#108,.T.);
#87=FACE_OUTER_BOUND('',#109,.T.);
#88=FACE_OUTER_BOUND('',#110,.T.);
#89=FACE_OUTER_BOUND('',#111,.T.);
#90=FACE_OUTER_BOUND('',#112,.T.);
#91=FACE_OUTER_BOUND('',#113,.T.);
#92=FACE_OUTER_BOUND('',#114,.T.);
#93=FACE_OUTER_BOUND('',#115,.T.);
#94=FACE_OUTER_BOUND('',#116,.T.);
#95=FACE_OUTER_BOUND('',#117,.T.);
#96=FACE_OUTER_BOUND('',#118,.T.);
#97=FACE_OUTER_BOUND('',#119,.T.);
#98=FACE_OUTER_BOUND('',#120,.T.);
#99=EDGE_LOOP('',(#157,#158,#159,#160));
#100=EDGE_LOOP('',(#161,#162,#163,#164));
#101=EDGE_LOOP('',(#165,#166,#167,#168));
#102=EDGE_LOOP('',(#169,#170,#171,#172));
#103=EDGE_LOOP('',(#173,#174));
#104=EDGE_LOOP('',(#175,#176,#177,#178,#179,#180,#181,#182,#183,#184,#185,
#186));
#105=EDGE_LOOP('',(#187,#188,#189,#190));
#106=EDGE_LOOP('',(#191,#192,#193,#194));
#107=EDGE_LOOP('',(#195,#196,#197,#198));
#108=EDGE_LOOP('',(#199,#200,#201,#202));
#109=EDGE_LOOP('',(#203,#204,#205,#206));
#110=EDGE_LOOP('',(#207,#208,#209,#210));
#111=EDGE_LOOP('',(#211,#212,#213,#214));
#112=EDGE_LOOP('',(#215,#216,#217,#218));
#113=EDGE_LOOP('',(#219,#220,#221,#222));
#114=EDGE_LOOP('',(#223,#224,#225,#226));
#115=EDGE_LOOP('',(#227,#228,#229,#230));
#116=EDGE_LOOP('',(#231,#232,#233,#234));
#117=EDGE_LOOP('',(#235,#236,#237,#238,#239,#240,#241,#242,#243,#244,#245,
#246));
#118=EDGE_LOOP('',(#247,#248,#249,#250));
#119=EDGE_LOOP('',(#251,#252,#253,#254));
#120=EDGE_LOOP('',(#255,#256));
#121=LINE('',#582,#139);
#122=LINE('',#586,#140);
#123=LINE('',#591,#141);
#124=LINE('',#595,#142);
#125=LINE('',#624,#143);
#126=LINE('',#628,#144);
#127=LINE('',#632,#145);
#128=LINE('',#636,#146);
#129=LINE('',#640,#147);
#130=LINE('',#644,#148);
#131=LINE('',#648,#149);
#132=LINE('',#652,#150);
#133=LINE('',#656,#151);
#134=LINE('',#660,#152);
#135=LINE('',#664,#153);
#136=LINE('',#668,#154);
#137=LINE('',#676,#155);
#138=LINE('',#677,#156);
#139=VECTOR('',#453,1.);
#140=VECTOR('',#456,1.);
#141=VECTOR('',#465,1.);
#142=VECTOR('',#468,1.);
#143=VECTOR('',#501,1.);
#144=VECTOR('',#504,1.);
#145=VECTOR('',#509,1.);
#146=VECTOR('',#514,1.);
#147=VECTOR('',#519,1.);
#148=VECTOR('',#524,1.);
#149=VECTOR('',#529,1.);
#150=VECTOR('',#534,1.);
#151=VECTOR('',#539,1.);
#152=VECTOR('',#544,1.);
#153=VECTOR('',#549,1.);
#154=VECTOR('',#554,1.);
#155=VECTOR('',#565,1.);
#156=VECTOR('',#566,1.);
#157=ORIENTED_EDGE('',*,*,#289,.T.);
#158=ORIENTED_EDGE('',*,*,#290,.F.);
#159=ORIENTED_EDGE('',*,*,#291,.F.);
#160=ORIENTED_EDGE('',*,*,#292,.T.);
#161=ORIENTED_EDGE('',*,*,#293,.T.);
#162=ORIENTED_EDGE('',*,*,#290,.T.);
#163=ORIENTED_EDGE('',*,*,#294,.F.);
#164=ORIENTED_EDGE('',*,*,#292,.F.);
#165=ORIENTED_EDGE('',*,*,#294,.T.);
#166=ORIENTED_EDGE('',*,*,#295,.F.);
#167=ORIENTED_EDGE('',*,*,#296,.F.);
#168=ORIENTED_EDGE('',*,*,#297,.T.);
#169=ORIENTED_EDGE('',*,*,#298,.T.);
#170=ORIENTED_EDGE('',*,*,#295,.T.);
#171=ORIENTED_EDGE('',*,*,#289,.F.);
#172=ORIENTED_EDGE('',*,*,#297,.F.);
#173=ORIENTED_EDGE('',*,*,#298,.F.);
#174=ORIENTED_EDGE('',*,*,#296,.T.);
#175=ORIENTED_EDGE('',*,*,#299,.T.);
#176=ORIENTED_EDGE('',*,*,#300,.F.);
#177=ORIENTED_EDGE('',*,*,#301,.T.);
#178=ORIENTED_EDGE('',*,*,#302,.F.);
#179=ORIENTED_EDGE('',*,*,#303,.T.);
#180=ORIENTED_EDGE('',*,*,#304,.F.);
#181=ORIENTED_EDGE('',*,*,#305,.T.);
#182=ORIENTED_EDGE('',*,*,#306,.F.);
#183=ORIENTED_EDGE('',*,*,#307,.T.);
#184=ORIENTED_EDGE('',*,*,#308,.F.);
#185=ORIENTED_EDGE('',*,*,#309,.T.);
#186=ORIENTED_EDGE('',*,*,#310,.F.);
#187=ORIENTED_EDGE('',*,*,#311,.T.);
#188=ORIENTED_EDGE('',*,*,#312,.T.);
#189=ORIENTED_EDGE('',*,*,#313,.F.);
#190=ORIENTED_EDGE('',*,*,#310,.T.);
#191=ORIENTED_EDGE('',*,*,#313,.T.);
#192=ORIENTED_EDGE('',*,*,#314,.T.);
#193=ORIENTED_EDGE('',*,*,#315,.F.);
#194=ORIENTED_EDGE('',*,*,#299,.F.);
#195=ORIENTED_EDGE('',*,*,#315,.T.);
#196=ORIENTED_EDGE('',*,*,#316,.T.);
#197=ORIENTED_EDGE('',*,*,#317,.F.);
#198=ORIENTED_EDGE('',*,*,#300,.T.);
#199=ORIENTED_EDGE('',*,*,#317,.T.);
#200=ORIENTED_EDGE('',*,*,#318,.T.);
#201=ORIENTED_EDGE('',*,*,#319,.F.);
#202=ORIENTED_EDGE('',*,*,#301,.F.);
#203=ORIENTED_EDGE('',*,*,#319,.T.);
#204=ORIENTED_EDGE('',*,*,#320,.T.);
#205=ORIENTED_EDGE('',*,*,#321,.F.);
#206=ORIENTED_EDGE('',*,*,#302,.T.);
#207=ORIENTED_EDGE('',*,*,#321,.T.);
#208=ORIENTED_EDGE('',*,*,#322,.T.);
#209=ORIENTED_EDGE('',*,*,#323,.F.);
#210=ORIENTED_EDGE('',*,*,#303,.F.);
#211=ORIENTED_EDGE('',*,*,#323,.T.);
#212=ORIENTED_EDGE('',*,*,#324,.T.);
#213=ORIENTED_EDGE('',*,*,#325,.F.);
#214=ORIENTED_EDGE('',*,*,#304,.T.);
#215=ORIENTED_EDGE('',*,*,#325,.T.);
#216=ORIENTED_EDGE('',*,*,#326,.T.);
#217=ORIENTED_EDGE('',*,*,#327,.F.);
#218=ORIENTED_EDGE('',*,*,#305,.F.);
#219=ORIENTED_EDGE('',*,*,#327,.T.);
#220=ORIENTED_EDGE('',*,*,#328,.T.);
#221=ORIENTED_EDGE('',*,*,#329,.F.);
#222=ORIENTED_EDGE('',*,*,#306,.T.);
#223=ORIENTED_EDGE('',*,*,#329,.T.);
#224=ORIENTED_EDGE('',*,*,#330,.T.);
#225=ORIENTED_EDGE('',*,*,#331,.F.);
#226=ORIENTED_EDGE('',*,*,#307,.F.);
#227=ORIENTED_EDGE('',*,*,#331,.T.);
#228=ORIENTED_EDGE('',*,*,#332,.T.);
#229=ORIENTED_EDGE('',*,*,#333,.F.);
#230=ORIENTED_EDGE('',*,*,#308,.T.);
#231=ORIENTED_EDGE('',*,*,#333,.T.);
#232=ORIENTED_EDGE('',*,*,#334,.T.);
#233=ORIENTED_EDGE('',*,*,#311,.F.);
#234=ORIENTED_EDGE('',*,*,#309,.F.);
#235=ORIENTED_EDGE('',*,*,#334,.F.);
#236=ORIENTED_EDGE('',*,*,#332,.F.);
#237=ORIENTED_EDGE('',*,*,#330,.F.);
#238=ORIENTED_EDGE('',*,*,#328,.F.);
#239=ORIENTED_EDGE('',*,*,#326,.F.);
#240=ORIENTED_EDGE('',*,*,#324,.F.);
#241=ORIENTED_EDGE('',*,*,#322,.F.);
#242=ORIENTED_EDGE('',*,*,#320,.F.);
#243=ORIENTED_EDGE('',*,*,#318,.F.);
#244=ORIENTED_EDGE('',*,*,#316,.F.);
#245=ORIENTED_EDGE('',*,*,#314,.F.);
#246=ORIENTED_EDGE('',*,*,#312,.F.);
#247=ORIENTED_EDGE('',*,*,#335,.T.);
#248=ORIENTED_EDGE('',*,*,#336,.F.);
#249=ORIENTED_EDGE('',*,*,#293,.F.);
#250=ORIENTED_EDGE('',*,*,#337,.T.);
#251=ORIENTED_EDGE('',*,*,#291,.T.);
#252=ORIENTED_EDGE('',*,*,#336,.T.);
#253=ORIENTED_EDGE('',*,*,#338,.F.);
#254=ORIENTED_EDGE('',*,*,#337,.F.);
#255=ORIENTED_EDGE('',*,*,#338,.T.);
#256=ORIENTED_EDGE('',*,*,#335,.F.);
#257=VERTEX_POINT('',#580);
#258=VERTEX_POINT('',#581);
#259=VERTEX_POINT('',#583);
#260=VERTEX_POINT('',#585);
#261=VERTEX_POINT('',#592);
#262=VERTEX_POINT('',#594);
#263=VERTEX_POINT('',#600);
#264=VERTEX_POINT('',#601);
#265=VERTEX_POINT('',#603);
#266=VERTEX_POINT('',#605);
#267=VERTEX_POINT('',#607);
#268=VERTEX_POINT('',#609);
#269=VERTEX_POINT('',#611);
#270=VERTEX_POINT('',#613);
#271=VERTEX_POINT('',#615);
#272=VERTEX_POINT('',#617);
#273=VERTEX_POINT('',#619);
#274=VERTEX_POINT('',#621);
#275=VERTEX_POINT('',#625);
#276=VERTEX_POINT('',#627);
#277=VERTEX_POINT('',#631);
#278=VERTEX_POINT('',#635);
#279=VERTEX_POINT('',#639);
#280=VERTEX_POINT('',#643);
#281=VERTEX_POINT('',#647);
#282=VERTEX_POINT('',#651);
#283=VERTEX_POINT('',#655);
#284=VERTEX_POINT('',#659);
#285=VERTEX_POINT('',#663);
#286=VERTEX_POINT('',#667);
#287=VERTEX_POINT('',#674);
#288=VERTEX_POINT('',#675);
#289=EDGE_CURVE('',#257,#258,#339,.T.);
#290=EDGE_CURVE('',#259,#258,#121,.T.);
#291=EDGE_CURVE('',#260,#259,#340,.T.);
#292=EDGE_CURVE('',#260,#257,#122,.T.);
#293=EDGE_CURVE('',#260,#259,#341,.T.);
#294=EDGE_CURVE('',#257,#258,#342,.T.);
#295=EDGE_CURVE('',#261,#258,#123,.T.);
#296=EDGE_CURVE('',#262,#261,#343,.T.);
#297=EDGE_CURVE('',#262,#257,#124,.T.);
#298=EDGE_CURVE('',#262,#261,#344,.T.);
#299=EDGE_CURVE('',#263,#264,#345,.T.);
#300=EDGE_CURVE('',#265,#264,#346,.T.);
#301=EDGE_CURVE('',#265,#266,#347,.T.);
#302=EDGE_CURVE('',#267,#266,#348,.T.);
#303=EDGE_CURVE('',#267,#268,#349,.T.);
#304=EDGE_CURVE('',#269,#268,#350,.T.);
#305=EDGE_CURVE('',#269,#270,#351,.T.);
#306=EDGE_CURVE('',#271,#270,#352,.T.);
#307=EDGE_CURVE('',#271,#272,#353,.T.);
#308=EDGE_CURVE('',#273,#272,#354,.T.);
#309=EDGE_CURVE('',#273,#274,#355,.T.);
#310=EDGE_CURVE('',#263,#274,#356,.T.);
#311=EDGE_CURVE('',#274,#275,#125,.T.);
#312=EDGE_CURVE('',#275,#276,#357,.T.);
#313=EDGE_CURVE('',#263,#276,#126,.T.);
#314=EDGE_CURVE('',#276,#277,#358,.T.);
#315=EDGE_CURVE('',#264,#277,#127,.T.);
#316=EDGE_CURVE('',#277,#278,#359,.T.);
#317=EDGE_CURVE('',#265,#278,#128,.T.);
#318=EDGE_CURVE('',#278,#279,#360,.T.);
#319=EDGE_CURVE('',#266,#279,#129,.T.);
#320=EDGE_CURVE('',#279,#280,#361,.T.);
#321=EDGE_CURVE('',#267,#280,#130,.T.);
#322=EDGE_CURVE('',#280,#281,#362,.T.);
#323=EDGE_CURVE('',#268,#281,#131,.T.);
#324=EDGE_CURVE('',#281,#282,#363,.T.);
#325=EDGE_CURVE('',#269,#282,#132,.T.);
#326=EDGE_CURVE('',#282,#283,#364,.T.);
#327=EDGE_CURVE('',#270,#283,#133,.T.);
#328=EDGE_CURVE('',#283,#284,#365,.T.);
#329=EDGE_CURVE('',#271,#284,#134,.T.);
#330=EDGE_CURVE('',#284,#285,#366,.T.);
#331=EDGE_CURVE('',#272,#285,#135,.T.);
#332=EDGE_CURVE('',#285,#286,#367,.T.);
#333=EDGE_CURVE('',#273,#286,#136,.T.);
#334=EDGE_CURVE('',#286,#275,#368,.T.);
#335=EDGE_CURVE('',#287,#288,#369,.T.);
#336=EDGE_CURVE('',#259,#288,#137,.T.);
#337=EDGE_CURVE('',#260,#287,#138,.T.);
#338=EDGE_CURVE('',#287,#288,#370,.T.);
#339=CIRCLE('',#392,2.25);
#340=CIRCLE('',#393,2.25);
#341=CIRCLE('',#395,2.25);
#342=CIRCLE('',#396,2.25);
#343=CIRCLE('',#398,1.75);
#344=CIRCLE('',#400,1.75);
#345=CIRCLE('',#402,0.5839826152726);
#346=CIRCLE('',#403,0.254);
#347=CIRCLE('',#404,0.5839826152726);
#348=CIRCLE('',#405,0.254);
#349=CIRCLE('',#406,0.5839826152726);
#350=CIRCLE('',#407,0.254);
#351=CIRCLE('',#408,0.5839826152726);
#352=CIRCLE('',#409,0.254);
#353=CIRCLE('',#410,0.5839826152726);
#354=CIRCLE('',#411,0.254);
#355=CIRCLE('',#412,0.5839826152726);
#356=CIRCLE('',#413,0.254);
#357=CIRCLE('',#415,0.254);
#358=CIRCLE('',#417,0.5839826152726);
#359=CIRCLE('',#419,0.254);
#360=CIRCLE('',#421,0.5839826152726);
#361=CIRCLE('',#423,0.254);
#362=CIRCLE('',#425,0.5839826152726);
#363=CIRCLE('',#427,0.254);
#364=CIRCLE('',#429,0.5839826152726);
#365=CIRCLE('',#431,0.254);
#366=CIRCLE('',#433,0.5839826152726);
#367=CIRCLE('',#435,0.254);
#368=CIRCLE('',#437,0.5839826152726);
#369=CIRCLE('',#440,1.6);
#370=CIRCLE('',#442,1.6);
#371=COLOUR_RGB('Strong Stone',0.576470588235294,0.54508278019379,0.392156862745098);
#372=COLOUR_RGB('spare part',0.301960784313725,0.301960784313725,0.301960784313725);
#373=CURVE_STYLE('',#375,POSITIVE_LENGTH_MEASURE(0.13),#388);
#374=CURVE_STYLE('',#376,POSITIVE_LENGTH_MEASURE(0.13),#371);
#375=DRAUGHTING_PRE_DEFINED_CURVE_FONT('continuous');
#376=DRAUGHTING_PRE_DEFINED_CURVE_FONT('continuous');
#377=PRESENTATION_LAYER_ASSIGNMENT('1','Layer 1',(#576,#390,#391,#33));
#378=STYLED_ITEM('',(#382),#576);
#379=STYLED_ITEM('',(#383),#390);
#380=STYLED_ITEM('',(#384),#391);
#381=STYLED_ITEM('',(#385),#33);
#382=PRESENTATION_STYLE_ASSIGNMENT((#386));
#383=PRESENTATION_STYLE_ASSIGNMENT((#373));
#384=PRESENTATION_STYLE_ASSIGNMENT((#374));
#385=PRESENTATION_STYLE_ASSIGNMENT((#28));
#386=POINT_STYLE('',#387,POSITIVE_LENGTH_MEASURE(3.),#388);
#387=PRE_DEFINED_POINT_MARKER_SYMBOL('plus');
#388=DRAUGHTING_PRE_DEFINED_COLOUR('yellow');
#389=AXIS2_PLACEMENT_3D('',#575,#445,#446);
#390=AXIS2_PLACEMENT_3D('PCS',#577,#447,#448);
#391=AXIS2_PLACEMENT_3D('',#578,#449,#450);
#392=AXIS2_PLACEMENT_3D('',#579,#451,#452);
#393=AXIS2_PLACEMENT_3D('',#584,#454,#455);
#394=AXIS2_PLACEMENT_3D('',#587,#457,#458);
#395=AXIS2_PLACEMENT_3D('',#588,#459,#460);
#396=AXIS2_PLACEMENT_3D('',#589,#461,#462);
#397=AXIS2_PLACEMENT_3D('',#590,#463,#464);
#398=AXIS2_PLACEMENT_3D('',#593,#466,#467);
#399=AXIS2_PLACEMENT_3D('',#596,#469,#470);
#400=AXIS2_PLACEMENT_3D('',#597,#471,#472);
#401=AXIS2_PLACEMENT_3D('',#598,#473,#474);
#402=AXIS2_PLACEMENT_3D('',#599,#475,#476);
#403=AXIS2_PLACEMENT_3D('',#602,#477,#478);
#404=AXIS2_PLACEMENT_3D('',#604,#479,#480);
#405=AXIS2_PLACEMENT_3D('',#606,#481,#482);
#406=AXIS2_PLACEMENT_3D('',#608,#483,#484);
#407=AXIS2_PLACEMENT_3D('',#610,#485,#486);
#408=AXIS2_PLACEMENT_3D('',#612,#487,#488);
#409=AXIS2_PLACEMENT_3D('',#614,#489,#490);
#410=AXIS2_PLACEMENT_3D('',#616,#491,#492);
#411=AXIS2_PLACEMENT_3D('',#618,#493,#494);
#412=AXIS2_PLACEMENT_3D('',#620,#495,#496);
#413=AXIS2_PLACEMENT_3D('',#622,#497,#498);
#414=AXIS2_PLACEMENT_3D('',#623,#499,#500);
#415=AXIS2_PLACEMENT_3D('',#626,#502,#503);
#416=AXIS2_PLACEMENT_3D('',#629,#505,#506);
#417=AXIS2_PLACEMENT_3D('',#630,#507,#508);
#418=AXIS2_PLACEMENT_3D('',#633,#510,#511);
#419=AXIS2_PLACEMENT_3D('',#634,#512,#513);
#420=AXIS2_PLACEMENT_3D('',#637,#515,#516);
#421=AXIS2_PLACEMENT_3D('',#638,#517,#518);
#422=AXIS2_PLACEMENT_3D('',#641,#520,#521);
#423=AXIS2_PLACEMENT_3D('',#642,#522,#523);
#424=AXIS2_PLACEMENT_3D('',#645,#525,#526);
#425=AXIS2_PLACEMENT_3D('',#646,#527,#528);
#426=AXIS2_PLACEMENT_3D('',#649,#530,#531);
#427=AXIS2_PLACEMENT_3D('',#650,#532,#533);
#428=AXIS2_PLACEMENT_3D('',#653,#535,#536);
#429=AXIS2_PLACEMENT_3D('',#654,#537,#538);
#430=AXIS2_PLACEMENT_3D('',#657,#540,#541);
#431=AXIS2_PLACEMENT_3D('',#658,#542,#543);
#432=AXIS2_PLACEMENT_3D('',#661,#545,#546);
#433=AXIS2_PLACEMENT_3D('',#662,#547,#548);
#434=AXIS2_PLACEMENT_3D('',#665,#550,#551);
#435=AXIS2_PLACEMENT_3D('',#666,#552,#553);
#436=AXIS2_PLACEMENT_3D('',#669,#555,#556);
#437=AXIS2_PLACEMENT_3D('',#670,#557,#558);
#438=AXIS2_PLACEMENT_3D('',#671,#559,#560);
#439=AXIS2_PLACEMENT_3D('',#672,#561,#562);
#440=AXIS2_PLACEMENT_3D('',#673,#563,#564);
#441=AXIS2_PLACEMENT_3D('',#678,#567,#568);
#442=AXIS2_PLACEMENT_3D('',#679,#569,#570);
#443=AXIS2_PLACEMENT_3D('',#680,#571,#572);
#444=AXIS2_PLACEMENT_3D('',#681,#573,#574);
#445=DIRECTION('',(0.,0.,1.));
#446=DIRECTION('',(1.,0.,0.));
#447=DIRECTION('',(0.,0.,1.));
#448=DIRECTION('',(1.,0.,0.));
#449=DIRECTION('',(0.,0.,1.));
#450=DIRECTION('',(1.,0.,0.));
#451=DIRECTION('',(0.,0.,1.));
#452=DIRECTION('',(-1.,0.,0.));
#453=DIRECTION('',(0.,0.,-1.));
#454=DIRECTION('',(0.,0.,1.));
#455=DIRECTION('',(-1.,0.,0.));
#456=DIRECTION('',(0.,0.,-1.));
#457=DIRECTION('',(0.,0.,1.));
#458=DIRECTION('',(1.,0.,0.));
#459=DIRECTION('',(0.,0.,-1.));
#460=DIRECTION('',(-1.,0.,0.));
#461=DIRECTION('',(0.,0.,-1.));
#462=DIRECTION('',(-1.,0.,0.));
#463=DIRECTION('',(0.,0.,1.));
#464=DIRECTION('',(1.,0.,0.));
#465=DIRECTION('',(0.866025403784429,0.,0.500000000000017));
#466=DIRECTION('',(0.,0.,-1.));
#467=DIRECTION('',(-1.,0.,0.));
#468=DIRECTION('',(-0.866025403784429,0.,0.500000000000017));
#469=DIRECTION('',(0.,0.,1.));
#470=DIRECTION('',(1.,0.,-1.72254294520083E-17));
#471=DIRECTION('',(0.,0.,1.));
#472=DIRECTION('',(-1.,0.,0.));
#473=DIRECTION('',(0.,0.,1.));
#474=DIRECTION('',(1.,0.,-1.72254294520083E-17));
#475=DIRECTION('',(0.,0.,-1.));
#476=DIRECTION('',(-0.962121758783778,0.272620104311494,0.));
#477=DIRECTION('',(0.,0.,-1.));
#478=DIRECTION('',(0.717156815308037,0.696911832484736,0.));
#479=DIRECTION('',(0.,0.,-1.));
#480=DIRECTION('',(-0.717156815307988,-0.696911832484788,0.));
#481=DIRECTION('',(0.,0.,-1.));
#482=DIRECTION('',(-0.244964943475789,0.969531936796258,0.));
#483=DIRECTION('',(0.,0.,-1.));
#484=DIRECTION('',(0.244964943475789,-0.969531936796258,0.));
#485=DIRECTION('',(0.,0.,-1.));
#486=DIRECTION('',(-0.962121758783778,0.272620104311494,0.));
#487=DIRECTION('',(0.,0.,-1.));
#488=DIRECTION('',(0.962121758783778,-0.272620104311494,0.));
#489=DIRECTION('',(0.,0.,-1.));
#490=DIRECTION('',(-0.717156815308037,-0.696911832484736,0.));
#491=DIRECTION('',(0.,0.,-1.));
#492=DIRECTION('',(0.717156815307988,0.696911832484788,0.));
#493=DIRECTION('',(0.,0.,-1.));
#494=DIRECTION('',(0.244964943475789,-0.969531936796258,0.));
#495=DIRECTION('',(0.,0.,-1.));
#496=DIRECTION('',(-0.244964943475789,0.969531936796258,0.));
#497=DIRECTION('',(0.,0.,-1.));
#498=DIRECTION('',(0.962121758783778,-0.272620104311494,0.));
#499=DIRECTION('',(0.,0.,1.));
#500=DIRECTION('',(1.,0.,0.));
#501=DIRECTION('',(0.,0.,1.));
#502=DIRECTION('',(0.,0.,1.));
#503=DIRECTION('',(-0.962121758783778,-0.272620104311494,0.));
#504=DIRECTION('',(0.,0.,1.));
#505=DIRECTION('',(0.,0.,-1.));
#506=DIRECTION('',(-1.,0.,0.));
#507=DIRECTION('',(0.,0.,-1.));
#508=DIRECTION('',(-0.962121758783778,0.272620104311494,0.));
#509=DIRECTION('',(0.,0.,1.));
#510=DIRECTION('',(0.,0.,-1.));
#511=DIRECTION('',(-1.,0.,0.));
#512=DIRECTION('',(0.,0.,1.));
#513=DIRECTION('',(-0.244964943475789,-0.969531936796258,0.));
#514=DIRECTION('',(0.,0.,1.));
#515=DIRECTION('',(0.,0.,-1.));
#516=DIRECTION('',(-1.,0.,0.));
#517=DIRECTION('',(0.,0.,-1.));
#518=DIRECTION('',(-0.717156815307988,-0.696911832484788,0.));
#519=DIRECTION('',(0.,0.,1.));
#520=DIRECTION('',(0.,0.,-1.));
#521=DIRECTION('',(-1.,0.,0.));
#522=DIRECTION('',(0.,0.,1.));
#523=DIRECTION('',(0.717156815308037,-0.696911832484736,0.));
#524=DIRECTION('',(0.,0.,1.));
#525=DIRECTION('',(0.,0.,-1.));
#526=DIRECTION('',(-1.,0.,0.));
#527=DIRECTION('',(0.,0.,-1.));
#528=DIRECTION('',(0.244964943475789,-0.969531936796258,0.));
#529=DIRECTION('',(0.,0.,1.));
#530=DIRECTION('',(0.,0.,-1.));
#531=DIRECTION('',(-1.,0.,0.));
#532=DIRECTION('',(0.,0.,1.));
#533=DIRECTION('',(0.962121758783778,0.272620104311494,0.));
#534=DIRECTION('',(0.,0.,1.));
#535=DIRECTION('',(0.,0.,-1.));
#536=DIRECTION('',(-1.,0.,0.));
#537=DIRECTION('',(0.,0.,-1.));
#538=DIRECTION('',(0.962121758783778,-0.272620104311494,0.));
#539=DIRECTION('',(0.,0.,1.));
#540=DIRECTION('',(0.,0.,-1.));
#541=DIRECTION('',(-1.,0.,0.));
#542=DIRECTION('',(0.,0.,1.));
#543=DIRECTION('',(0.244964943475696,0.969531936796282,0.));
#544=DIRECTION('',(0.,0.,1.));
#545=DIRECTION('',(0.,0.,-1.));
#546=DIRECTION('',(-1.,0.,0.));
#547=DIRECTION('',(0.,0.,-1.));
#548=DIRECTION('',(0.717156815307988,0.696911832484788,0.));
#549=DIRECTION('',(0.,0.,1.));
#550=DIRECTION('',(0.,0.,-1.));
#551=DIRECTION('',(-1.,0.,0.));
#552=DIRECTION('',(0.,0.,1.));
#553=DIRECTION('',(-0.717156815308037,0.696911832484736,0.));
#554=DIRECTION('',(0.,0.,1.));
#555=DIRECTION('',(0.,0.,-1.));
#556=DIRECTION('',(-1.,0.,0.));
#557=DIRECTION('',(0.,0.,-1.));
#558=DIRECTION('',(-0.244964943475789,0.969531936796258,0.));
#559=DIRECTION('',(0.,0.,-1.));
#560=DIRECTION('',(-1.,0.,0.));
#561=DIRECTION('',(0.,0.,-1.));
#562=DIRECTION('',(-1.,0.,0.));
#563=DIRECTION('',(0.,0.,-1.));
#564=DIRECTION('',(-1.,0.,0.));
#565=DIRECTION('',(-0.707106781186547,0.,0.707106781186547));
#566=DIRECTION('',(0.707106781186547,0.,0.707106781186547));
#567=DIRECTION('',(0.,0.,-1.));
#568=DIRECTION('',(-1.,0.,-1.55825149425269E-17));
#569=DIRECTION('',(0.,0.,1.));
#570=DIRECTION('',(-1.,0.,0.));
#571=DIRECTION('',(0.,0.,-1.));
#572=DIRECTION('',(-1.,0.,-1.55825149425269E-17));
#573=DIRECTION('',(0.,0.,1.));
#574=DIRECTION('',(1.,0.,0.));
#575=CARTESIAN_POINT('',(0.,0.,0.));
#576=CARTESIAN_POINT('',(0.,0.,0.));
#577=CARTESIAN_POINT('',(0.,0.,0.));
#578=CARTESIAN_POINT('',(0.,0.,0.));
#579=CARTESIAN_POINT('',(0.,0.,0.2886751345948));
#580=CARTESIAN_POINT('',(-2.25,0.,0.2886751345948));
#581=CARTESIAN_POINT('',(2.25,0.,0.2886751345948));
#582=CARTESIAN_POINT('',(2.25,0.,0.2886751345948));
#583=CARTESIAN_POINT('',(2.25,0.,4.35));
#584=CARTESIAN_POINT('',(0.,0.,4.35));
#585=CARTESIAN_POINT('',(-2.25,0.,4.35));
#586=CARTESIAN_POINT('',(-2.25,0.,0.2886751345948));
#587=CARTESIAN_POINT('',(0.,0.,-0.25));
#588=CARTESIAN_POINT('',(0.,0.,4.35));
#589=CARTESIAN_POINT('',(0.,0.,0.2886751345948));
#590=CARTESIAN_POINT('',(0.,0.,-0.25));
#591=CARTESIAN_POINT('',(1.75,0.,0.));
#592=CARTESIAN_POINT('',(1.75,0.,0.));
#593=CARTESIAN_POINT('',(0.,0.,0.));
#594=CARTESIAN_POINT('',(-1.75,0.,0.));
#595=CARTESIAN_POINT('',(-1.75,0.,0.));
#596=CARTESIAN_POINT('',(0.,0.,0.1443375672974));
#597=CARTESIAN_POINT('',(0.,0.,0.));
#598=CARTESIAN_POINT('',(0.,0.,0.1443375672974));
#599=CARTESIAN_POINT('',(0.8062413076363,-1.396450907987,0.));
#600=CARTESIAN_POINT('',(0.2443789267311,-1.237245506495,0.));
#601=CARTESIAN_POINT('',(0.9492965759774,-0.8302611119463,0.));
#602=CARTESIAN_POINT('',(1.01151767162,-0.584,0.));
#603=CARTESIAN_POINT('',(1.193675502708,-0.4069843945489,0.));
#604=CARTESIAN_POINT('',(1.612482615273,0.,0.));
#605=CARTESIAN_POINT('',(1.193675502708,0.4069843945489,0.));
#606=CARTESIAN_POINT('',(1.01151767162,0.584,0.));
#607=CARTESIAN_POINT('',(0.9492965759774,0.8302611119462,0.));
#608=CARTESIAN_POINT('',(0.8062413076363,1.396450907987,0.));
#609=CARTESIAN_POINT('',(0.2443789267311,1.237245506495,0.));
#610=CARTESIAN_POINT('',(0.,1.168,0.));
#611=CARTESIAN_POINT('',(-0.2443789267311,1.237245506495,0.));
#612=CARTESIAN_POINT('',(-0.8062413076363,1.396450907987,0.));
#613=CARTESIAN_POINT('',(-0.9492965759774,0.8302611119463,0.));
#614=CARTESIAN_POINT('',(-1.01151767162,0.584,0.));
#615=CARTESIAN_POINT('',(-1.193675502708,0.4069843945489,0.));
#616=CARTESIAN_POINT('',(-1.612482615273,0.,0.));
#617=CARTESIAN_POINT('',(-1.193675502708,-0.4069843945489,0.));
#618=CARTESIAN_POINT('',(-1.01151767162,-0.584,0.));
#619=CARTESIAN_POINT('',(-0.9492965759774,-0.8302611119463,0.));
#620=CARTESIAN_POINT('',(-0.8062413076363,-1.396450907987,0.));
#621=CARTESIAN_POINT('',(-0.2443789267311,-1.237245506495,0.));
#622=CARTESIAN_POINT('',(0.,-1.168,0.));
#623=CARTESIAN_POINT('',(0.,0.,0.));
#624=CARTESIAN_POINT('',(-0.2443789267311,-1.237245506495,0.));
#625=CARTESIAN_POINT('',(-0.2443789267311,-1.237245506495,2.));
#626=CARTESIAN_POINT('',(0.,-1.168,2.));
#627=CARTESIAN_POINT('',(0.2443789267311,-1.237245506495,2.));
#628=CARTESIAN_POINT('',(0.2443789267311,-1.237245506495,0.));
#629=CARTESIAN_POINT('',(0.,-1.168,0.));
#630=CARTESIAN_POINT('',(0.8062413076363,-1.396450907987,2.));
#631=CARTESIAN_POINT('',(0.9492965759774,-0.8302611119463,2.));
#632=CARTESIAN_POINT('',(0.9492965759774,-0.8302611119463,0.));
#633=CARTESIAN_POINT('',(0.8062413076363,-1.396450907987,0.));
#634=CARTESIAN_POINT('',(1.01151767162,-0.584,2.));
#635=CARTESIAN_POINT('',(1.193675502708,-0.4069843945489,2.));
#636=CARTESIAN_POINT('',(1.193675502708,-0.4069843945489,0.));
#637=CARTESIAN_POINT('',(1.01151767162,-0.584,0.));
#638=CARTESIAN_POINT('',(1.612482615273,0.,2.));
#639=CARTESIAN_POINT('',(1.193675502708,0.4069843945489,2.));
#640=CARTESIAN_POINT('',(1.193675502708,0.4069843945489,0.));
#641=CARTESIAN_POINT('',(1.612482615273,0.,0.));
#642=CARTESIAN_POINT('',(1.01151767162,0.584,2.));
#643=CARTESIAN_POINT('',(0.9492965759774,0.8302611119462,2.));
#644=CARTESIAN_POINT('',(0.9492965759774,0.8302611119463,0.));
#645=CARTESIAN_POINT('',(1.01151767162,0.584,0.));
#646=CARTESIAN_POINT('',(0.8062413076363,1.396450907987,2.));
#647=CARTESIAN_POINT('',(0.2443789267311,1.237245506495,2.));
#648=CARTESIAN_POINT('',(0.2443789267311,1.237245506495,0.));
#649=CARTESIAN_POINT('',(0.8062413076363,1.396450907987,0.));
#650=CARTESIAN_POINT('',(0.,1.168,2.));
#651=CARTESIAN_POINT('',(-0.2443789267311,1.237245506495,2.));
#652=CARTESIAN_POINT('',(-0.2443789267311,1.237245506495,0.));
#653=CARTESIAN_POINT('',(0.,1.168,0.));
#654=CARTESIAN_POINT('',(-0.8062413076363,1.396450907987,2.));
#655=CARTESIAN_POINT('',(-0.9492965759774,0.8302611119463,2.));
#656=CARTESIAN_POINT('',(-0.9492965759774,0.8302611119463,0.));
#657=CARTESIAN_POINT('',(-0.8062413076363,1.396450907987,0.));
#658=CARTESIAN_POINT('',(-1.01151767162,0.584,2.));
#659=CARTESIAN_POINT('',(-1.193675502708,0.4069843945489,2.));
#660=CARTESIAN_POINT('',(-1.193675502708,0.4069843945489,0.));
#661=CARTESIAN_POINT('',(-1.01151767162,0.584,0.));
#662=CARTESIAN_POINT('',(-1.612482615273,0.,2.));
#663=CARTESIAN_POINT('',(-1.193675502708,-0.4069843945489,2.));
#664=CARTESIAN_POINT('',(-1.193675502708,-0.4069843945489,0.));
#665=CARTESIAN_POINT('',(-1.612482615273,0.,0.));
#666=CARTESIAN_POINT('',(-1.01151767162,-0.584,2.));
#667=CARTESIAN_POINT('',(-0.9492965759774,-0.8302611119463,2.));
#668=CARTESIAN_POINT('',(-0.9492965759774,-0.8302611119463,0.));
#669=CARTESIAN_POINT('',(-1.01151767162,-0.584,0.));
#670=CARTESIAN_POINT('',(-0.8062413076363,-1.396450907987,2.));
#671=CARTESIAN_POINT('',(-0.8062413076363,-1.396450907987,0.));
#672=CARTESIAN_POINT('',(0.,0.,2.));
#673=CARTESIAN_POINT('',(0.,0.,5.));
#674=CARTESIAN_POINT('',(-1.6,0.,5.));
#675=CARTESIAN_POINT('',(1.6,0.,5.));
#676=CARTESIAN_POINT('',(2.25,0.,4.35));
#677=CARTESIAN_POINT('',(-2.25,0.,4.35));
#678=CARTESIAN_POINT('',(0.,0.,4.675));
#679=CARTESIAN_POINT('',(0.,0.,5.));
#680=CARTESIAN_POINT('',(0.,0.,4.675));
#681=CARTESIAN_POINT('',(0.,0.,5.));
#682=MECHANICAL_DESIGN_GEOMETRIC_PRESENTATION_REPRESENTATION('',(#378,#379,
#380,#381),#683);
#683=(
GEOMETRIC_REPRESENTATION_CONTEXT(3)
GLOBAL_UNCERTAINTY_ASSIGNED_CONTEXT((#684))
GLOBAL_UNIT_ASSIGNED_CONTEXT((#690,#686,#685))
REPRESENTATION_CONTEXT('TSS04505S','TOP_LEVEL_ASSEMBLY_PART')
);
#684=UNCERTAINTY_MEASURE_WITH_UNIT(LENGTH_MEASURE(2.E-5),#690,
'DISTANCE_ACCURACY_VALUE','Maximum Tolerance applied to model');
#685=(
NAMED_UNIT(*)
SI_UNIT($,.STERADIAN.)
SOLID_ANGLE_UNIT()
);
#686=(
CONVERSION_BASED_UNIT('DEGREE',#688)
NAMED_UNIT(#687)
PLANE_ANGLE_UNIT()
);
#687=DIMENSIONAL_EXPONENTS(0.,0.,0.,0.,0.,0.,0.);
#688=PLANE_ANGLE_MEASURE_WITH_UNIT(PLANE_ANGLE_MEASURE(0.0174532925),#689);
#689=(
NAMED_UNIT(*)
PLANE_ANGLE_UNIT()
SI_UNIT($,.RADIAN.)
);
#690=(
LENGTH_UNIT()
NAMED_UNIT(*)
SI_UNIT(.MILLI.,.METRE.)
);
ENDSEC;
END-ISO-10303-21;
