ISO-10303-21;
HEADER;
/* Generated by software containing ST-Developer
 * from STEP Tools, Inc. (www.steptools.com) 
 */
/* OPTION: using custom schema-name function */

FILE_DESCRIPTION(
/* description */ (''),
/* implementation_level */ '2;1');

FILE_NAME(
/* name */ 'WU375-S1.stp',
/* time_stamp */ '2022-02-03T10:43:14+09:00',
/* author */ (''),
/* organization */ (''),
/* preprocessor_version */ 'ST-DEVELOPER v16',
/* originating_system */ 'SIEMENS PLM Software NX 10.0',
/* authorisation */ '');

FILE_SCHEMA (('AUTOMOTIVE_DESIGN { 1 0 10303 214 3 1 1 1 }'));
ENDSEC;

DATA;
#10=CONSTRUCTIVE_GEOMETRY_REPRESENTATION_RELATIONSHIP(
'supplemental geometry','',#26,#11);
#11=CONSTRUCTIVE_GEOMETRY_REPRESENTATION('supplemental geometry',(#142,
#143),#227);
#12=GEOMETRICALLY_BOUNDED_WIREFRAME_SHAPE_REPRESENTATION(
'WU375-S1-None',(#27),#227);
#13=SHAPE_REPRESENTATION_RELATIONSHIP('None',
'relationship between WU375-S1-None and WU375-S1-None',#26,#15);
#14=SHAPE_REPRESENTATION_RELATIONSHIP('None',
'relationship between WU375-S1-None and WU375-S1-None',#26,#12);
#15=ADVANCED_BREP_SHAPE_REPRESENTATION('WU375-S1-None',(#33),#227);
#16=SHAPE_DEFINITION_REPRESENTATION(#17,#26);
#17=PRODUCT_DEFINITION_SHAPE('','',#18);
#18=PRODUCT_DEFINITION('part definition','',#20,#19);
#19=PRODUCT_DEFINITION_CONTEXT('part definition',#25,'design');
#20=PRODUCT_DEFINITION_FORMATION_WITH_SPECIFIED_SOURCE(' ',' ',#22,
 .NOT_KNOWN.);
#21=PRODUCT_RELATED_PRODUCT_CATEGORY('part','',(#22));
#22=PRODUCT('WU375-S1','WU375-S1','NOT SPECIFIED',(#23));
#23=PRODUCT_CONTEXT('',#25,'mechanical');
#24=APPLICATION_PROTOCOL_DEFINITION('international standard',
'automotive_design',2010,#25);
#25=APPLICATION_CONTEXT(
'core data for automotive mechanical design processes');
#26=SHAPE_REPRESENTATION('WU375-S1-None',(#141),#227);
#27=GEOMETRIC_CURVE_SET('None',(#197));
#28=SURFACE_STYLE_USAGE(.BOTH.,#29);
#29=SURFACE_SIDE_STYLE('',(#30));
#30=SURFACE_STYLE_FILL_AREA(#31);
#31=FILL_AREA_STYLE('',(#32));
#32=FILL_AREA_STYLE_COLOUR('',#124);
#33=MANIFOLD_SOLID_BREP('',#34);
#34=CLOSED_SHELL('',(#41,#42,#43,#44,#45,#46));
#35=PLANE('',#152);
#36=PLANE('',#157);
#37=FACE_BOUND('',#57,.T.);
#38=FACE_BOUND('',#58,.T.);
#39=FACE_BOUND('',#61,.T.);
#40=FACE_BOUND('',#62,.T.);
#41=ADVANCED_FACE('',(#51),#47,.F.);
#42=ADVANCED_FACE('',(#52),#48,.F.);
#43=ADVANCED_FACE('',(#37,#38),#35,.T.);
#44=ADVANCED_FACE('',(#53),#49,.T.);
#45=ADVANCED_FACE('',(#54),#50,.T.);
#46=ADVANCED_FACE('',(#39,#40),#36,.F.);
#47=CYLINDRICAL_SURFACE('',#146,5.0125);
#48=CYLINDRICAL_SURFACE('',#149,5.0125);
#49=CYLINDRICAL_SURFACE('',#154,7.94);
#50=CYLINDRICAL_SURFACE('',#156,7.94);
#51=FACE_OUTER_BOUND('',#55,.T.);
#52=FACE_OUTER_BOUND('',#56,.T.);
#53=FACE_OUTER_BOUND('',#59,.T.);
#54=FACE_OUTER_BOUND('',#60,.T.);
#55=EDGE_LOOP('',(#71,#72,#73,#74));
#56=EDGE_LOOP('',(#75,#76,#77,#78));
#57=EDGE_LOOP('',(#79,#80));
#58=EDGE_LOOP('',(#81,#82));
#59=EDGE_LOOP('',(#83,#84,#85,#86));
#60=EDGE_LOOP('',(#87,#88,#89,#90));
#61=EDGE_LOOP('',(#91,#92));
#62=EDGE_LOOP('',(#93,#94));
#63=LINE('',#203,#67);
#64=LINE('',#207,#68);
#65=LINE('',#220,#69);
#66=LINE('',#221,#70);
#67=VECTOR('',#166,1.);
#68=VECTOR('',#169,1.);
#69=VECTOR('',#186,1.);
#70=VECTOR('',#187,1.);
#71=ORIENTED_EDGE('',*,*,#103,.T.);
#72=ORIENTED_EDGE('',*,*,#104,.T.);
#73=ORIENTED_EDGE('',*,*,#105,.F.);
#74=ORIENTED_EDGE('',*,*,#106,.F.);
#75=ORIENTED_EDGE('',*,*,#107,.T.);
#76=ORIENTED_EDGE('',*,*,#104,.F.);
#77=ORIENTED_EDGE('',*,*,#108,.F.);
#78=ORIENTED_EDGE('',*,*,#106,.T.);
#79=ORIENTED_EDGE('',*,*,#109,.F.);
#80=ORIENTED_EDGE('',*,*,#110,.T.);
#81=ORIENTED_EDGE('',*,*,#103,.F.);
#82=ORIENTED_EDGE('',*,*,#108,.T.);
#83=ORIENTED_EDGE('',*,*,#111,.T.);
#84=ORIENTED_EDGE('',*,*,#112,.T.);
#85=ORIENTED_EDGE('',*,*,#110,.F.);
#86=ORIENTED_EDGE('',*,*,#113,.F.);
#87=ORIENTED_EDGE('',*,*,#109,.T.);
#88=ORIENTED_EDGE('',*,*,#112,.F.);
#89=ORIENTED_EDGE('',*,*,#114,.F.);
#90=ORIENTED_EDGE('',*,*,#113,.T.);
#91=ORIENTED_EDGE('',*,*,#111,.F.);
#92=ORIENTED_EDGE('',*,*,#114,.T.);
#93=ORIENTED_EDGE('',*,*,#107,.F.);
#94=ORIENTED_EDGE('',*,*,#105,.T.);
#95=VERTEX_POINT('',#201);
#96=VERTEX_POINT('',#202);
#97=VERTEX_POINT('',#204);
#98=VERTEX_POINT('',#206);
#99=VERTEX_POINT('',#213);
#100=VERTEX_POINT('',#214);
#101=VERTEX_POINT('',#218);
#102=VERTEX_POINT('',#219);
#103=EDGE_CURVE('',#95,#96,#115,.T.);
#104=EDGE_CURVE('',#96,#97,#63,.T.);
#105=EDGE_CURVE('',#98,#97,#116,.T.);
#106=EDGE_CURVE('',#95,#98,#64,.T.);
#107=EDGE_CURVE('',#98,#97,#117,.T.);
#108=EDGE_CURVE('',#95,#96,#118,.T.);
#109=EDGE_CURVE('',#99,#100,#119,.T.);
#110=EDGE_CURVE('',#99,#100,#120,.T.);
#111=EDGE_CURVE('',#101,#102,#121,.T.);
#112=EDGE_CURVE('',#102,#100,#65,.T.);
#113=EDGE_CURVE('',#101,#99,#66,.T.);
#114=EDGE_CURVE('',#101,#102,#122,.T.);
#115=CIRCLE('',#144,5.0125);
#116=CIRCLE('',#145,5.0125);
#117=CIRCLE('',#147,5.0125);
#118=CIRCLE('',#148,5.0125);
#119=CIRCLE('',#150,7.94);
#120=CIRCLE('',#151,7.94);
#121=CIRCLE('',#153,7.94);
#122=CIRCLE('',#155,7.94);
#123=COLOUR_RGB('Strong Stone',0.576470588235294,0.54508278019379,0.392156862745098);
#124=COLOUR_RGB('spare part',0.301960784313725,0.301960784313725,0.301960784313725);
#125=CURVE_STYLE('',#127,POSITIVE_LENGTH_MEASURE(0.13),#140);
#126=CURVE_STYLE('',#128,POSITIVE_LENGTH_MEASURE(0.13),#123);
#127=DRAUGHTING_PRE_DEFINED_CURVE_FONT('continuous');
#128=DRAUGHTING_PRE_DEFINED_CURVE_FONT('continuous');
#129=PRESENTATION_LAYER_ASSIGNMENT('1','Layer 1',(#197,#142,#143,#33));
#130=STYLED_ITEM('',(#134),#197);
#131=STYLED_ITEM('',(#135),#142);
#132=STYLED_ITEM('',(#136),#143);
#133=STYLED_ITEM('',(#137),#33);
#134=PRESENTATION_STYLE_ASSIGNMENT((#138));
#135=PRESENTATION_STYLE_ASSIGNMENT((#125));
#136=PRESENTATION_STYLE_ASSIGNMENT((#126));
#137=PRESENTATION_STYLE_ASSIGNMENT((#28));
#138=POINT_STYLE('',#139,POSITIVE_LENGTH_MEASURE(3.),#140);
#139=PRE_DEFINED_POINT_MARKER_SYMBOL('plus');
#140=DRAUGHTING_PRE_DEFINED_COLOUR('yellow');
#141=AXIS2_PLACEMENT_3D('',#196,#158,#159);
#142=AXIS2_PLACEMENT_3D('PCS',#198,#160,#161);
#143=AXIS2_PLACEMENT_3D('',#199,#162,#163);
#144=AXIS2_PLACEMENT_3D('',#200,#164,#165);
#145=AXIS2_PLACEMENT_3D('',#205,#167,#168);
#146=AXIS2_PLACEMENT_3D('',#208,#170,#171);
#147=AXIS2_PLACEMENT_3D('',#209,#172,#173);
#148=AXIS2_PLACEMENT_3D('',#210,#174,#175);
#149=AXIS2_PLACEMENT_3D('',#211,#176,#177);
#150=AXIS2_PLACEMENT_3D('',#212,#178,#179);
#151=AXIS2_PLACEMENT_3D('',#215,#180,#181);
#152=AXIS2_PLACEMENT_3D('',#216,#182,#183);
#153=AXIS2_PLACEMENT_3D('',#217,#184,#185);
#154=AXIS2_PLACEMENT_3D('',#222,#188,#189);
#155=AXIS2_PLACEMENT_3D('',#223,#190,#191);
#156=AXIS2_PLACEMENT_3D('',#224,#192,#193);
#157=AXIS2_PLACEMENT_3D('',#225,#194,#195);
#158=DIRECTION('',(0.,0.,1.));
#159=DIRECTION('',(1.,0.,0.));
#160=DIRECTION('',(0.,0.,1.));
#161=DIRECTION('',(1.,0.,0.));
#162=DIRECTION('',(0.,0.,1.));
#163=DIRECTION('',(1.,0.,0.));
#164=DIRECTION('',(0.,0.,-1.));
#165=DIRECTION('',(1.,0.,0.));
#166=DIRECTION('',(0.,0.,1.));
#167=DIRECTION('',(0.,0.,-1.));
#168=DIRECTION('',(1.,0.,0.));
#169=DIRECTION('',(0.,0.,1.));
#170=DIRECTION('',(0.,0.,-1.));
#171=DIRECTION('',(1.,0.,0.));
#172=DIRECTION('',(0.,0.,1.));
#173=DIRECTION('',(1.,0.,0.));
#174=DIRECTION('',(0.,0.,1.));
#175=DIRECTION('',(1.,0.,0.));
#176=DIRECTION('',(0.,0.,-1.));
#177=DIRECTION('',(1.,0.,0.));
#178=DIRECTION('',(0.,0.,1.));
#179=DIRECTION('',(1.,0.,0.));
#180=DIRECTION('',(0.,0.,-1.));
#181=DIRECTION('',(1.,0.,0.));
#182=DIRECTION('',(0.,0.,-1.));
#183=DIRECTION('',(1.,0.,0.));
#184=DIRECTION('',(0.,0.,-1.));
#185=DIRECTION('',(1.,0.,0.));
#186=DIRECTION('',(0.,0.,-1.));
#187=DIRECTION('',(0.,0.,-1.));
#188=DIRECTION('',(0.,0.,-1.));
#189=DIRECTION('',(1.,0.,0.));
#190=DIRECTION('',(0.,0.,1.));
#191=DIRECTION('',(1.,0.,0.));
#192=DIRECTION('',(0.,0.,-1.));
#193=DIRECTION('',(1.,0.,0.));
#194=DIRECTION('',(0.,0.,-1.));
#195=DIRECTION('',(1.,0.,0.));
#196=CARTESIAN_POINT('',(0.,0.,0.));
#197=CARTESIAN_POINT('',(0.,0.,0.));
#198=CARTESIAN_POINT('',(0.,0.,0.));
#199=CARTESIAN_POINT('',(0.,0.,0.));
#200=CARTESIAN_POINT('',(0.,0.,-2.03));
#201=CARTESIAN_POINT('',(5.0125,0.,-2.03));
#202=CARTESIAN_POINT('',(-5.0125,0.,-2.03));
#203=CARTESIAN_POINT('',(-5.0125,0.,0.));
#204=CARTESIAN_POINT('',(-5.0125,0.,0.));
#205=CARTESIAN_POINT('',(0.,0.,0.));
#206=CARTESIAN_POINT('',(5.0125,0.,0.));
#207=CARTESIAN_POINT('',(5.0125,0.,0.));
#208=CARTESIAN_POINT('',(0.,0.,0.1015));
#209=CARTESIAN_POINT('',(0.,0.,0.));
#210=CARTESIAN_POINT('',(0.,0.,-2.03));
#211=CARTESIAN_POINT('',(0.,0.,0.1015));
#212=CARTESIAN_POINT('',(0.,0.,-2.03));
#213=CARTESIAN_POINT('',(7.94,0.,-2.03));
#214=CARTESIAN_POINT('',(-7.94,0.,-2.03));
#215=CARTESIAN_POINT('',(0.,0.,-2.03));
#216=CARTESIAN_POINT('',(0.,0.,-2.03));
#217=CARTESIAN_POINT('',(0.,0.,0.));
#218=CARTESIAN_POINT('',(7.94,0.,0.));
#219=CARTESIAN_POINT('',(-7.94,0.,0.));
#220=CARTESIAN_POINT('',(-7.94,0.,-2.03));
#221=CARTESIAN_POINT('',(7.94,0.,-2.03));
#222=CARTESIAN_POINT('',(0.,0.,0.1015));
#223=CARTESIAN_POINT('',(0.,0.,0.));
#224=CARTESIAN_POINT('',(0.,0.,0.1015));
#225=CARTESIAN_POINT('',(0.,0.,0.));
#226=MECHANICAL_DESIGN_GEOMETRIC_PRESENTATION_REPRESENTATION('',(#130,#131,
#132,#133),#227);
#227=(
GEOMETRIC_REPRESENTATION_CONTEXT(3)
GLOBAL_UNCERTAINTY_ASSIGNED_CONTEXT((#228))
GLOBAL_UNIT_ASSIGNED_CONTEXT((#234,#230,#229))
REPRESENTATION_CONTEXT('WU375-S1','TOP_LEVEL_ASSEMBLY_PART')
);
#228=UNCERTAINTY_MEASURE_WITH_UNIT(LENGTH_MEASURE(2.E-5),#234,
'DISTANCE_ACCURACY_VALUE','Maximum Tolerance applied to model');
#229=(
NAMED_UNIT(*)
SI_UNIT($,.STERADIAN.)
SOLID_ANGLE_UNIT()
);
#230=(
CONVERSION_BASED_UNIT('DEGREE',#232)
NAMED_UNIT(#231)
PLANE_ANGLE_UNIT()
);
#231=DIMENSIONAL_EXPONENTS(0.,0.,0.,0.,0.,0.,0.);
#232=PLANE_ANGLE_MEASURE_WITH_UNIT(PLANE_ANGLE_MEASURE(0.0174532925),#233);
#233=(
NAMED_UNIT(*)
PLANE_ANGLE_UNIT()
SI_UNIT($,.RADIAN.)
);
#234=(
LENGTH_UNIT()
NAMED_UNIT(*)
SI_UNIT(.MILLI.,.METRE.)
);
ENDSEC;
END-ISO-10303-21;
