ISO-10303-21;
HEADER;
/* Generated by software containing ST-Developer
 * from STEP Tools, Inc. (www.steptools.com) 
 */
/* OPTION: using custom schema-name function */

FILE_DESCRIPTION(
/* description */ (''),
/* implementation_level */ '2;1');

FILE_NAME(
/* name */ 'HSS08008G.stp',
/* time_stamp */ '2022-02-03T10:43:20+09:00',
/* author */ (''),
/* organization */ (''),
/* preprocessor_version */ 'ST-DEVELOPER v16',
/* originating_system */ 'SIEMENS PLM Software NX 10.0',
/* authorisation */ '');

FILE_SCHEMA (('AUTOMOTIVE_DESIGN { 1 0 10303 214 3 1 1 1 }'));
ENDSEC;

DATA;
#10=CONSTRUCTIVE_GEOMETRY_REPRESENTATION_RELATIONSHIP(
'supplemental geometry','',#26,#11);
#11=CONSTRUCTIVE_GEOMETRY_REPRESENTATION('supplemental geometry',(#336,
#337),#617);
#12=GEOMETRICALLY_BOUNDED_WIREFRAME_SHAPE_REPRESENTATION(
'HSS08008G-None',(#27),#617);
#13=SHAPE_REPRESENTATION_RELATIONSHIP('None',
'relationship between HSS08008G-None and HSS08008G-None',#26,#15);
#14=SHAPE_REPRESENTATION_RELATIONSHIP('None',
'relationship between HSS08008G-None and HSS08008G-None',#26,#12);
#15=ADVANCED_BREP_SHAPE_REPRESENTATION('HSS08008G-None',(#33),#617);
#16=SHAPE_DEFINITION_REPRESENTATION(#17,#26);
#17=PRODUCT_DEFINITION_SHAPE('','',#18);
#18=PRODUCT_DEFINITION('part definition','',#20,#19);
#19=PRODUCT_DEFINITION_CONTEXT('part definition',#25,'design');
#20=PRODUCT_DEFINITION_FORMATION_WITH_SPECIFIED_SOURCE(' ',' ',#22,
 .NOT_KNOWN.);
#21=PRODUCT_RELATED_PRODUCT_CATEGORY('part','',(#22));
#22=PRODUCT('HSS08008G','HSS08008G','NOT SPECIFIED',(#23));
#23=PRODUCT_CONTEXT('',#25,'mechanical');
#24=APPLICATION_PROTOCOL_DEFINITION('international standard',
'automotive_design',2010,#25);
#25=APPLICATION_CONTEXT(
'core data for automotive mechanical design processes');
#26=SHAPE_REPRESENTATION('HSS08008G-None',(#335),#617);
#27=GEOMETRIC_CURVE_SET('None',(#464));
#28=SURFACE_STYLE_USAGE(.BOTH.,#29);
#29=SURFACE_SIDE_STYLE('',(#30));
#30=SURFACE_STYLE_FILL_AREA(#31);
#31=FILL_AREA_STYLE('',(#32));
#32=FILL_AREA_STYLE_COLOUR('',#318);
#33=MANIFOLD_SOLID_BREP('',#34);
#34=CLOSED_SHELL('',(#60,#61,#62,#63,#64,#65,#66,#67,#68,#69,#70,#71,#72,
#73,#74,#75,#76,#77,#78));
#35=SPHERICAL_SURFACE('',#362,4.);
#36=SPHERICAL_SURFACE('',#365,4.);
#37=B_SPLINE_CURVE_WITH_KNOTS('',3,(#502,#503,#504,#505,#506,#507,#508,
#509,#510,#511,#512,#513),.UNSPECIFIED.,.F.,.F.,(4,1,1,1,1,1,1,1,1,4),(0.,
0.1111111111111,0.2222222222222,0.3333333333333,0.4444444444444,0.5555555555556,
0.6666666666667,0.7777777777778,0.8888888888889,1.),.UNSPECIFIED.);
#38=B_SPLINE_CURVE_WITH_KNOTS('',3,(#517,#518,#519,#520,#521,#522,#523,
#524,#525,#526,#527,#528),.UNSPECIFIED.,.F.,.F.,(4,1,1,1,1,1,1,1,1,4),(0.,
0.1111111111111,0.2222222222222,0.3333333333333,0.4444444444444,0.5555555555556,
0.6666666666667,0.7777777777778,0.8888888888889,1.),.UNSPECIFIED.);
#39=B_SPLINE_CURVE_WITH_KNOTS('',3,(#532,#533,#534,#535,#536,#537,#538,
#539,#540,#541,#542,#543),.UNSPECIFIED.,.F.,.F.,(4,1,1,1,1,1,1,1,1,4),(0.,
0.1111111111111,0.2222222222222,0.3333333333333,0.4444444444444,0.5555555555556,
0.6666666666667,0.7777777777778,0.8888888888889,1.),.UNSPECIFIED.);
#40=B_SPLINE_CURVE_WITH_KNOTS('',3,(#547,#548,#549,#550,#551,#552,#553,
#554,#555,#556,#557,#558),.UNSPECIFIED.,.F.,.F.,(4,1,1,1,1,1,1,1,1,4),(0.,
0.1111111111111,0.2222222222222,0.3333333333333,0.4444444444444,0.5555555555556,
0.6666666666667,0.7777777777778,0.8888888888889,1.),.UNSPECIFIED.);
#41=B_SPLINE_CURVE_WITH_KNOTS('',3,(#562,#563,#564,#565,#566,#567,#568,
#569,#570,#571,#572,#573),.UNSPECIFIED.,.F.,.F.,(4,1,1,1,1,1,1,1,1,4),(0.,
0.1111111111111,0.2222222222222,0.3333333333333,0.4444444444444,0.5555555555556,
0.6666666666667,0.7777777777778,0.8888888888889,1.),.UNSPECIFIED.);
#42=B_SPLINE_CURVE_WITH_KNOTS('',3,(#577,#578,#579,#580,#581,#582,#583,
#584,#585,#586,#587,#588),.UNSPECIFIED.,.F.,.F.,(4,1,1,1,1,1,1,1,1,4),(0.,
0.1111111111111,0.2222222222222,0.3333333333333,0.4444444444444,0.5555555555556,
0.6666666666667,0.7777777777778,0.8888888888889,1.),.UNSPECIFIED.);
#43=PLANE('',#348);
#44=PLANE('',#349);
#45=PLANE('',#350);
#46=PLANE('',#351);
#47=PLANE('',#352);
#48=PLANE('',#353);
#49=PLANE('',#354);
#50=PLANE('',#364);
#51=PLANE('',#370);
#52=FACE_BOUND('',#103,.T.);
#53=FACE_BOUND('',#104,.T.);
#54=CONICAL_SURFACE('',#345,3.5,60.);
#55=CONICAL_SURFACE('',#347,3.5,60.);
#56=CONICAL_SURFACE('',#356,1.838740825031,70.);
#57=CONICAL_SURFACE('',#358,1.838740825031,70.);
#58=CONICAL_SURFACE('',#367,3.5,45.);
#59=CONICAL_SURFACE('',#369,3.5,45.);
#60=ADVANCED_FACE('',(#81),#79,.T.);
#61=ADVANCED_FACE('',(#82),#80,.T.);
#62=ADVANCED_FACE('',(#83),#54,.T.);
#63=ADVANCED_FACE('',(#84),#55,.T.);
#64=ADVANCED_FACE('',(#52,#53),#43,.F.);
#65=ADVANCED_FACE('',(#85),#44,.F.);
#66=ADVANCED_FACE('',(#86),#45,.F.);
#67=ADVANCED_FACE('',(#87),#46,.F.);
#68=ADVANCED_FACE('',(#88),#47,.F.);
#69=ADVANCED_FACE('',(#89),#48,.F.);
#70=ADVANCED_FACE('',(#90),#49,.F.);
#71=ADVANCED_FACE('',(#91),#56,.F.);
#72=ADVANCED_FACE('',(#92),#57,.F.);
#73=ADVANCED_FACE('',(#93),#35,.F.);
#74=ADVANCED_FACE('',(#94),#50,.T.);
#75=ADVANCED_FACE('',(#95),#36,.F.);
#76=ADVANCED_FACE('',(#96),#58,.T.);
#77=ADVANCED_FACE('',(#97),#59,.T.);
#78=ADVANCED_FACE('',(#98),#51,.T.);
#79=CYLINDRICAL_SURFACE('',#340,4.);
#80=CYLINDRICAL_SURFACE('',#343,4.);
#81=FACE_OUTER_BOUND('',#99,.T.);
#82=FACE_OUTER_BOUND('',#100,.T.);
#83=FACE_OUTER_BOUND('',#101,.T.);
#84=FACE_OUTER_BOUND('',#102,.T.);
#85=FACE_OUTER_BOUND('',#105,.T.);
#86=FACE_OUTER_BOUND('',#106,.T.);
#87=FACE_OUTER_BOUND('',#107,.T.);
#88=FACE_OUTER_BOUND('',#108,.T.);
#89=FACE_OUTER_BOUND('',#109,.T.);
#90=FACE_OUTER_BOUND('',#110,.T.);
#91=FACE_OUTER_BOUND('',#111,.T.);
#92=FACE_OUTER_BOUND('',#112,.T.);
#93=FACE_OUTER_BOUND('',#113,.T.);
#94=FACE_OUTER_BOUND('',#114,.T.);
#95=FACE_OUTER_BOUND('',#115,.T.);
#96=FACE_OUTER_BOUND('',#116,.T.);
#97=FACE_OUTER_BOUND('',#117,.T.);
#98=FACE_OUTER_BOUND('',#118,.T.);
#99=EDGE_LOOP('',(#159,#160,#161,#162));
#100=EDGE_LOOP('',(#163,#164,#165,#166));
#101=EDGE_LOOP('',(#167,#168,#169,#170));
#102=EDGE_LOOP('',(#171,#172,#173,#174));
#103=EDGE_LOOP('',(#175,#176));
#104=EDGE_LOOP('',(#177,#178,#179,#180,#181,#182));
#105=EDGE_LOOP('',(#183,#184,#185,#186));
#106=EDGE_LOOP('',(#187,#188,#189,#190));
#107=EDGE_LOOP('',(#191,#192,#193,#194));
#108=EDGE_LOOP('',(#195,#196,#197,#198));
#109=EDGE_LOOP('',(#199,#200,#201,#202));
#110=EDGE_LOOP('',(#203,#204,#205,#206));
#111=EDGE_LOOP('',(#207,#208,#209,#210,#211,#212));
#112=EDGE_LOOP('',(#213,#214,#215,#216,#217,#218));
#113=EDGE_LOOP('',(#219,#220,#221,#222));
#114=EDGE_LOOP('',(#223,#224));
#115=EDGE_LOOP('',(#225,#226,#227,#228));
#116=EDGE_LOOP('',(#229,#230,#231,#232));
#117=EDGE_LOOP('',(#233,#234,#235,#236));
#118=EDGE_LOOP('',(#237,#238));
#119=LINE('',#470,#139);
#120=LINE('',#474,#140);
#121=LINE('',#479,#141);
#122=LINE('',#483,#142);
#123=LINE('',#487,#143);
#124=LINE('',#490,#144);
#125=LINE('',#492,#145);
#126=LINE('',#494,#146);
#127=LINE('',#496,#147);
#128=LINE('',#498,#148);
#129=LINE('',#500,#149);
#130=LINE('',#515,#150);
#131=LINE('',#530,#151);
#132=LINE('',#545,#152);
#133=LINE('',#560,#153);
#134=LINE('',#575,#154);
#135=LINE('',#590,#155);
#136=LINE('',#594,#156);
#137=LINE('',#610,#157);
#138=LINE('',#611,#158);
#139=VECTOR('',#379,1.);
#140=VECTOR('',#382,1.);
#141=VECTOR('',#391,1.);
#142=VECTOR('',#394,1.);
#143=VECTOR('',#401,1.);
#144=VECTOR('',#402,1.);
#145=VECTOR('',#403,1.);
#146=VECTOR('',#404,1.);
#147=VECTOR('',#405,1.);
#148=VECTOR('',#406,1.);
#149=VECTOR('',#409,1.);
#150=VECTOR('',#410,1.);
#151=VECTOR('',#413,1.);
#152=VECTOR('',#416,1.);
#153=VECTOR('',#419,1.);
#154=VECTOR('',#422,1.);
#155=VECTOR('',#427,1.);
#156=VECTOR('',#430,1.);
#157=VECTOR('',#453,1.);
#158=VECTOR('',#454,1.);
#159=ORIENTED_EDGE('',*,*,#263,.T.);
#160=ORIENTED_EDGE('',*,*,#264,.F.);
#161=ORIENTED_EDGE('',*,*,#265,.F.);
#162=ORIENTED_EDGE('',*,*,#266,.T.);
#163=ORIENTED_EDGE('',*,*,#267,.T.);
#164=ORIENTED_EDGE('',*,*,#264,.T.);
#165=ORIENTED_EDGE('',*,*,#268,.F.);
#166=ORIENTED_EDGE('',*,*,#266,.F.);
#167=ORIENTED_EDGE('',*,*,#268,.T.);
#168=ORIENTED_EDGE('',*,*,#269,.F.);
#169=ORIENTED_EDGE('',*,*,#270,.F.);
#170=ORIENTED_EDGE('',*,*,#271,.T.);
#171=ORIENTED_EDGE('',*,*,#272,.T.);
#172=ORIENTED_EDGE('',*,*,#269,.T.);
#173=ORIENTED_EDGE('',*,*,#263,.F.);
#174=ORIENTED_EDGE('',*,*,#271,.F.);
#175=ORIENTED_EDGE('',*,*,#272,.F.);
#176=ORIENTED_EDGE('',*,*,#270,.T.);
#177=ORIENTED_EDGE('',*,*,#273,.F.);
#178=ORIENTED_EDGE('',*,*,#274,.F.);
#179=ORIENTED_EDGE('',*,*,#275,.F.);
#180=ORIENTED_EDGE('',*,*,#276,.F.);
#181=ORIENTED_EDGE('',*,*,#277,.F.);
#182=ORIENTED_EDGE('',*,*,#278,.F.);
#183=ORIENTED_EDGE('',*,*,#279,.T.);
#184=ORIENTED_EDGE('',*,*,#280,.T.);
#185=ORIENTED_EDGE('',*,*,#281,.F.);
#186=ORIENTED_EDGE('',*,*,#278,.T.);
#187=ORIENTED_EDGE('',*,*,#281,.T.);
#188=ORIENTED_EDGE('',*,*,#282,.T.);
#189=ORIENTED_EDGE('',*,*,#283,.F.);
#190=ORIENTED_EDGE('',*,*,#273,.T.);
#191=ORIENTED_EDGE('',*,*,#283,.T.);
#192=ORIENTED_EDGE('',*,*,#284,.T.);
#193=ORIENTED_EDGE('',*,*,#285,.F.);
#194=ORIENTED_EDGE('',*,*,#274,.T.);
#195=ORIENTED_EDGE('',*,*,#285,.T.);
#196=ORIENTED_EDGE('',*,*,#286,.T.);
#197=ORIENTED_EDGE('',*,*,#287,.F.);
#198=ORIENTED_EDGE('',*,*,#275,.T.);
#199=ORIENTED_EDGE('',*,*,#287,.T.);
#200=ORIENTED_EDGE('',*,*,#288,.T.);
#201=ORIENTED_EDGE('',*,*,#289,.F.);
#202=ORIENTED_EDGE('',*,*,#276,.T.);
#203=ORIENTED_EDGE('',*,*,#289,.T.);
#204=ORIENTED_EDGE('',*,*,#290,.T.);
#205=ORIENTED_EDGE('',*,*,#279,.F.);
#206=ORIENTED_EDGE('',*,*,#277,.T.);
#207=ORIENTED_EDGE('',*,*,#288,.F.);
#208=ORIENTED_EDGE('',*,*,#286,.F.);
#209=ORIENTED_EDGE('',*,*,#291,.F.);
#210=ORIENTED_EDGE('',*,*,#292,.F.);
#211=ORIENTED_EDGE('',*,*,#293,.T.);
#212=ORIENTED_EDGE('',*,*,#290,.F.);
#213=ORIENTED_EDGE('',*,*,#293,.F.);
#214=ORIENTED_EDGE('',*,*,#294,.T.);
#215=ORIENTED_EDGE('',*,*,#291,.T.);
#216=ORIENTED_EDGE('',*,*,#284,.F.);
#217=ORIENTED_EDGE('',*,*,#282,.F.);
#218=ORIENTED_EDGE('',*,*,#280,.F.);
#219=ORIENTED_EDGE('',*,*,#295,.F.);
#220=ORIENTED_EDGE('',*,*,#294,.F.);
#221=ORIENTED_EDGE('',*,*,#296,.T.);
#222=ORIENTED_EDGE('',*,*,#297,.T.);
#223=ORIENTED_EDGE('',*,*,#297,.F.);
#224=ORIENTED_EDGE('',*,*,#298,.F.);
#225=ORIENTED_EDGE('',*,*,#296,.F.);
#226=ORIENTED_EDGE('',*,*,#292,.T.);
#227=ORIENTED_EDGE('',*,*,#295,.T.);
#228=ORIENTED_EDGE('',*,*,#298,.T.);
#229=ORIENTED_EDGE('',*,*,#299,.T.);
#230=ORIENTED_EDGE('',*,*,#300,.F.);
#231=ORIENTED_EDGE('',*,*,#267,.F.);
#232=ORIENTED_EDGE('',*,*,#301,.T.);
#233=ORIENTED_EDGE('',*,*,#265,.T.);
#234=ORIENTED_EDGE('',*,*,#300,.T.);
#235=ORIENTED_EDGE('',*,*,#302,.F.);
#236=ORIENTED_EDGE('',*,*,#301,.F.);
#237=ORIENTED_EDGE('',*,*,#302,.T.);
#238=ORIENTED_EDGE('',*,*,#299,.F.);
#239=VERTEX_POINT('',#468);
#240=VERTEX_POINT('',#469);
#241=VERTEX_POINT('',#471);
#242=VERTEX_POINT('',#473);
#243=VERTEX_POINT('',#480);
#244=VERTEX_POINT('',#482);
#245=VERTEX_POINT('',#488);
#246=VERTEX_POINT('',#489);
#247=VERTEX_POINT('',#491);
#248=VERTEX_POINT('',#493);
#249=VERTEX_POINT('',#495);
#250=VERTEX_POINT('',#497);
#251=VERTEX_POINT('',#501);
#252=VERTEX_POINT('',#514);
#253=VERTEX_POINT('',#529);
#254=VERTEX_POINT('',#544);
#255=VERTEX_POINT('',#559);
#256=VERTEX_POINT('',#574);
#257=VERTEX_POINT('',#591);
#258=VERTEX_POINT('',#593);
#259=VERTEX_POINT('',#599);
#260=VERTEX_POINT('',#601);
#261=VERTEX_POINT('',#608);
#262=VERTEX_POINT('',#609);
#263=EDGE_CURVE('',#239,#240,#303,.T.);
#264=EDGE_CURVE('',#241,#240,#119,.T.);
#265=EDGE_CURVE('',#242,#241,#304,.T.);
#266=EDGE_CURVE('',#242,#239,#120,.T.);
#267=EDGE_CURVE('',#242,#241,#305,.T.);
#268=EDGE_CURVE('',#239,#240,#306,.T.);
#269=EDGE_CURVE('',#243,#240,#121,.T.);
#270=EDGE_CURVE('',#244,#243,#307,.T.);
#271=EDGE_CURVE('',#244,#239,#122,.T.);
#272=EDGE_CURVE('',#244,#243,#308,.T.);
#273=EDGE_CURVE('',#245,#246,#123,.T.);
#274=EDGE_CURVE('',#247,#245,#124,.T.);
#275=EDGE_CURVE('',#248,#247,#125,.T.);
#276=EDGE_CURVE('',#249,#248,#126,.T.);
#277=EDGE_CURVE('',#250,#249,#127,.T.);
#278=EDGE_CURVE('',#246,#250,#128,.T.);
#279=EDGE_CURVE('',#250,#251,#129,.T.);
#280=EDGE_CURVE('',#251,#252,#37,.T.);
#281=EDGE_CURVE('',#246,#252,#130,.T.);
#282=EDGE_CURVE('',#252,#253,#38,.T.);
#283=EDGE_CURVE('',#245,#253,#131,.T.);
#284=EDGE_CURVE('',#253,#254,#39,.T.);
#285=EDGE_CURVE('',#247,#254,#132,.T.);
#286=EDGE_CURVE('',#254,#255,#40,.T.);
#287=EDGE_CURVE('',#248,#255,#133,.T.);
#288=EDGE_CURVE('',#255,#256,#41,.T.);
#289=EDGE_CURVE('',#249,#256,#134,.T.);
#290=EDGE_CURVE('',#256,#251,#42,.T.);
#291=EDGE_CURVE('',#257,#254,#135,.T.);
#292=EDGE_CURVE('',#258,#257,#309,.T.);
#293=EDGE_CURVE('',#258,#251,#136,.T.);
#294=EDGE_CURVE('',#258,#257,#310,.T.);
#295=EDGE_CURVE('',#257,#259,#311,.T.);
#296=EDGE_CURVE('',#258,#260,#312,.T.);
#297=EDGE_CURVE('',#260,#259,#313,.T.);
#298=EDGE_CURVE('',#259,#260,#314,.T.);
#299=EDGE_CURVE('',#261,#262,#315,.T.);
#300=EDGE_CURVE('',#241,#262,#137,.T.);
#301=EDGE_CURVE('',#242,#261,#138,.T.);
#302=EDGE_CURVE('',#261,#262,#316,.T.);
#303=CIRCLE('',#338,4.);
#304=CIRCLE('',#339,4.);
#305=CIRCLE('',#341,4.);
#306=CIRCLE('',#342,4.);
#307=CIRCLE('',#344,3.);
#308=CIRCLE('',#346,3.);
#309=CIRCLE('',#355,1.368080573303);
#310=CIRCLE('',#357,1.368080573303);
#311=CIRCLE('',#359,4.);
#312=CIRCLE('',#360,4.);
#313=CIRCLE('',#361,0.8146826254351);
#314=CIRCLE('',#363,0.8146826254351);
#315=CIRCLE('',#366,3.);
#316=CIRCLE('',#368,3.);
#317=COLOUR_RGB('Strong Stone',0.576470588235294,0.54508278019379,0.392156862745098);
#318=COLOUR_RGB('spare part',0.301960784313725,0.301960784313725,0.301960784313725);
#319=CURVE_STYLE('',#321,POSITIVE_LENGTH_MEASURE(0.13),#334);
#320=CURVE_STYLE('',#322,POSITIVE_LENGTH_MEASURE(0.13),#317);
#321=DRAUGHTING_PRE_DEFINED_CURVE_FONT('continuous');
#322=DRAUGHTING_PRE_DEFINED_CURVE_FONT('continuous');
#323=PRESENTATION_LAYER_ASSIGNMENT('1','Layer 1',(#464,#336,#337,#33));
#324=STYLED_ITEM('',(#328),#464);
#325=STYLED_ITEM('',(#329),#336);
#326=STYLED_ITEM('',(#330),#337);
#327=STYLED_ITEM('',(#331),#33);
#328=PRESENTATION_STYLE_ASSIGNMENT((#332));
#329=PRESENTATION_STYLE_ASSIGNMENT((#319));
#330=PRESENTATION_STYLE_ASSIGNMENT((#320));
#331=PRESENTATION_STYLE_ASSIGNMENT((#28));
#332=POINT_STYLE('',#333,POSITIVE_LENGTH_MEASURE(3.),#334);
#333=PRE_DEFINED_POINT_MARKER_SYMBOL('plus');
#334=DRAUGHTING_PRE_DEFINED_COLOUR('yellow');
#335=AXIS2_PLACEMENT_3D('',#463,#371,#372);
#336=AXIS2_PLACEMENT_3D('PCS',#465,#373,#374);
#337=AXIS2_PLACEMENT_3D('',#466,#375,#376);
#338=AXIS2_PLACEMENT_3D('',#467,#377,#378);
#339=AXIS2_PLACEMENT_3D('',#472,#380,#381);
#340=AXIS2_PLACEMENT_3D('',#475,#383,#384);
#341=AXIS2_PLACEMENT_3D('',#476,#385,#386);
#342=AXIS2_PLACEMENT_3D('',#477,#387,#388);
#343=AXIS2_PLACEMENT_3D('',#478,#389,#390);
#344=AXIS2_PLACEMENT_3D('',#481,#392,#393);
#345=AXIS2_PLACEMENT_3D('',#484,#395,#396);
#346=AXIS2_PLACEMENT_3D('',#485,#397,#398);
#347=AXIS2_PLACEMENT_3D('',#486,#399,#400);
#348=AXIS2_PLACEMENT_3D('',#499,#407,#408);
#349=AXIS2_PLACEMENT_3D('',#516,#411,#412);
#350=AXIS2_PLACEMENT_3D('',#531,#414,#415);
#351=AXIS2_PLACEMENT_3D('',#546,#417,#418);
#352=AXIS2_PLACEMENT_3D('',#561,#420,#421);
#353=AXIS2_PLACEMENT_3D('',#576,#423,#424);
#354=AXIS2_PLACEMENT_3D('',#589,#425,#426);
#355=AXIS2_PLACEMENT_3D('',#592,#428,#429);
#356=AXIS2_PLACEMENT_3D('',#595,#431,#432);
#357=AXIS2_PLACEMENT_3D('',#596,#433,#434);
#358=AXIS2_PLACEMENT_3D('',#597,#435,#436);
#359=AXIS2_PLACEMENT_3D('',#598,#437,#438);
#360=AXIS2_PLACEMENT_3D('',#600,#439,#440);
#361=AXIS2_PLACEMENT_3D('',#602,#441,#442);
#362=AXIS2_PLACEMENT_3D('',#603,#443,#444);
#363=AXIS2_PLACEMENT_3D('',#604,#445,#446);
#364=AXIS2_PLACEMENT_3D('',#605,#447,#448);
#365=AXIS2_PLACEMENT_3D('',#606,#449,#450);
#366=AXIS2_PLACEMENT_3D('',#607,#451,#452);
#367=AXIS2_PLACEMENT_3D('',#612,#455,#456);
#368=AXIS2_PLACEMENT_3D('',#613,#457,#458);
#369=AXIS2_PLACEMENT_3D('',#614,#459,#460);
#370=AXIS2_PLACEMENT_3D('',#615,#461,#462);
#371=DIRECTION('',(0.,0.,1.));
#372=DIRECTION('',(1.,0.,0.));
#373=DIRECTION('',(0.,0.,1.));
#374=DIRECTION('',(1.,0.,0.));
#375=DIRECTION('',(0.,0.,1.));
#376=DIRECTION('',(1.,0.,0.));
#377=DIRECTION('',(0.,0.,1.));
#378=DIRECTION('',(-1.,0.,0.));
#379=DIRECTION('',(0.,0.,-1.));
#380=DIRECTION('',(0.,0.,1.));
#381=DIRECTION('',(-1.,0.,0.));
#382=DIRECTION('',(0.,0.,-1.));
#383=DIRECTION('',(0.,0.,1.));
#384=DIRECTION('',(1.,0.,0.));
#385=DIRECTION('',(0.,0.,-1.));
#386=DIRECTION('',(-1.,0.,0.));
#387=DIRECTION('',(0.,0.,-1.));
#388=DIRECTION('',(-1.,0.,0.));
#389=DIRECTION('',(0.,0.,1.));
#390=DIRECTION('',(1.,0.,0.));
#391=DIRECTION('',(0.866025403784429,0.,0.500000000000017));
#392=DIRECTION('',(0.,0.,-1.));
#393=DIRECTION('',(-1.,0.,0.));
#394=DIRECTION('',(-0.866025403784429,0.,0.500000000000017));
#395=DIRECTION('',(0.,0.,1.));
#396=DIRECTION('',(1.,0.,-3.44210837524447E-17));
#397=DIRECTION('',(0.,0.,1.));
#398=DIRECTION('',(-1.,0.,0.));
#399=DIRECTION('',(0.,0.,1.));
#400=DIRECTION('',(1.,0.,-3.44210837524447E-17));
#401=DIRECTION('',(-1.,0.,0.));
#402=DIRECTION('',(-0.500000000000017,-0.866025403784429,0.));
#403=DIRECTION('',(0.500000000000017,-0.866025403784429,0.));
#404=DIRECTION('',(1.,0.,0.));
#405=DIRECTION('',(0.500000000000017,0.866025403784429,0.));
#406=DIRECTION('',(-0.500000000000017,0.866025403784429,0.));
#407=DIRECTION('',(0.,0.,1.));
#408=DIRECTION('',(1.,0.,0.));
#409=DIRECTION('',(0.,0.,1.));
#410=DIRECTION('',(0.,0.,1.));
#411=DIRECTION('',(-0.866025403784429,-0.500000000000017,0.));
#412=DIRECTION('',(0.500000000000017,-0.866025403784429,0.));
#413=DIRECTION('',(0.,0.,1.));
#414=DIRECTION('',(0.,-1.,0.));
#415=DIRECTION('',(1.,0.,0.));
#416=DIRECTION('',(0.,0.,1.));
#417=DIRECTION('',(0.866025403784429,-0.500000000000017,0.));
#418=DIRECTION('',(0.500000000000017,0.866025403784429,0.));
#419=DIRECTION('',(0.,0.,1.));
#420=DIRECTION('',(0.866025403784429,0.500000000000017,0.));
#421=DIRECTION('',(-0.500000000000017,0.866025403784429,0.));
#422=DIRECTION('',(0.,0.,1.));
#423=DIRECTION('',(0.,1.,0.));
#424=DIRECTION('',(-1.,0.,0.));
#425=DIRECTION('',(-0.866025403784429,0.500000000000017,0.));
#426=DIRECTION('',(-0.500000000000017,-0.866025403784429,0.));
#427=DIRECTION('',(0.939692620785897,0.,-0.342020143325699));
#428=DIRECTION('',(0.,0.,-1.));
#429=DIRECTION('',(-1.,0.,0.));
#430=DIRECTION('',(-0.939692620785897,0.,-0.342020143325699));
#431=DIRECTION('',(0.,0.,-1.));
#432=DIRECTION('',(-1.,0.,5.04772350605281E-18));
#433=DIRECTION('',(0.,0.,1.));
#434=DIRECTION('',(-1.,0.,0.));
#435=DIRECTION('',(0.,0.,-1.));
#436=DIRECTION('',(-1.,0.,5.04772350605281E-18));
#437=DIRECTION('',(0.,-1.,0.));
#438=DIRECTION('',(0.342020143325699,0.,0.939692620785897));
#439=DIRECTION('',(0.,1.,0.));
#440=DIRECTION('',(-0.342020143325699,0.,0.939692620785897));
#441=DIRECTION('',(0.,0.,1.));
#442=DIRECTION('',(-1.,0.,0.));
#443=DIRECTION('',(6.12323399573677E-17,0.,1.));
#444=DIRECTION('',(1.,0.,0.));
#445=DIRECTION('',(0.,0.,1.));
#446=DIRECTION('',(1.,0.,0.));
#447=DIRECTION('',(0.,0.,-1.));
#448=DIRECTION('',(-1.,0.,0.));
#449=DIRECTION('',(6.12323399573677E-17,0.,1.));
#450=DIRECTION('',(1.,0.,0.));
#451=DIRECTION('',(0.,0.,-1.));
#452=DIRECTION('',(-1.,0.,0.));
#453=DIRECTION('',(-0.707106781186547,0.,0.707106781186547));
#454=DIRECTION('',(0.707106781186547,0.,0.707106781186547));
#455=DIRECTION('',(0.,0.,-1.));
#456=DIRECTION('',(-1.,0.,-4.84028473615851E-17));
#457=DIRECTION('',(0.,0.,1.));
#458=DIRECTION('',(-1.,0.,0.));
#459=DIRECTION('',(0.,0.,-1.));
#460=DIRECTION('',(-1.,0.,-4.84028473615851E-17));
#461=DIRECTION('',(0.,0.,1.));
#462=DIRECTION('',(1.,0.,0.));
#463=CARTESIAN_POINT('',(0.,0.,0.));
#464=CARTESIAN_POINT('',(0.,0.,0.));
#465=CARTESIAN_POINT('',(0.,0.,0.));
#466=CARTESIAN_POINT('',(0.,0.,0.));
#467=CARTESIAN_POINT('',(0.,0.,0.5773502691896));
#468=CARTESIAN_POINT('',(-4.,0.,0.5773502691896));
#469=CARTESIAN_POINT('',(4.,0.,0.5773502691896));
#470=CARTESIAN_POINT('',(4.,0.,0.5773502691896));
#471=CARTESIAN_POINT('',(4.,0.,7.));
#472=CARTESIAN_POINT('',(0.,0.,7.));
#473=CARTESIAN_POINT('',(-4.,0.,7.));
#474=CARTESIAN_POINT('',(-4.,0.,0.5773502691896));
#475=CARTESIAN_POINT('',(0.,0.,-0.4));
#476=CARTESIAN_POINT('',(0.,0.,7.));
#477=CARTESIAN_POINT('',(0.,0.,0.5773502691896));
#478=CARTESIAN_POINT('',(0.,0.,-0.4));
#479=CARTESIAN_POINT('',(3.,0.,0.));
#480=CARTESIAN_POINT('',(3.,0.,0.));
#481=CARTESIAN_POINT('',(0.,0.,0.));
#482=CARTESIAN_POINT('',(-3.,0.,0.));
#483=CARTESIAN_POINT('',(-3.,0.,0.));
#484=CARTESIAN_POINT('',(0.,0.,0.2886751345948));
#485=CARTESIAN_POINT('',(0.,0.,0.));
#486=CARTESIAN_POINT('',(0.,0.,0.2886751345948));
#487=CARTESIAN_POINT('',(1.154700538379,-2.,0.));
#488=CARTESIAN_POINT('',(1.154700538379,-2.,0.));
#489=CARTESIAN_POINT('',(-1.154700538379,-2.,0.));
#490=CARTESIAN_POINT('',(2.309401076759,0.,0.));
#491=CARTESIAN_POINT('',(2.309401076759,0.,0.));
#492=CARTESIAN_POINT('',(1.154700538379,2.,0.));
#493=CARTESIAN_POINT('',(1.154700538379,2.,0.));
#494=CARTESIAN_POINT('',(-1.154700538379,2.,0.));
#495=CARTESIAN_POINT('',(-1.154700538379,2.,0.));
#496=CARTESIAN_POINT('',(-2.309401076759,0.,0.));
#497=CARTESIAN_POINT('',(-2.309401076759,0.,0.));
#498=CARTESIAN_POINT('',(-1.154700538379,-2.,0.));
#499=CARTESIAN_POINT('',(0.,0.,0.));
#500=CARTESIAN_POINT('',(-2.309401076759,0.,0.));
#501=CARTESIAN_POINT('',(-2.309401076759,0.,3.5));
#502=CARTESIAN_POINT('',(-2.309401076759,0.,3.5));
#503=CARTESIAN_POINT('',(-2.265001998249,-0.07690145978814,3.516159943006));
#504=CARTESIAN_POINT('',(-2.17723843467,-0.2289124109594,3.545280834493));
#505=CARTESIAN_POINT('',(-2.049895457485,-0.449476917432,3.578414730598));
#506=CARTESIAN_POINT('',(-1.923027963184,-0.66921786339,3.60131825511));
#507=CARTESIAN_POINT('',(-1.795798854473,-0.889585143879,3.613102677323));
#508=CARTESIAN_POINT('',(-1.668216235801,-1.110564721582,3.6130984488));
#509=CARTESIAN_POINT('',(-1.540991821538,-1.330923871049,3.601307121851));
#510=CARTESIAN_POINT('',(-1.414127492483,-1.550659334639,3.578396245174));
#511=CARTESIAN_POINT('',(-1.286848630465,-1.771112790384,3.545275244753));
#512=CARTESIAN_POINT('',(-1.199095973308,-1.923104851078,3.516158616852));
#513=CARTESIAN_POINT('',(-1.154700538379,-2.,3.5));
#514=CARTESIAN_POINT('',(-1.154700538379,-2.,3.5));
#515=CARTESIAN_POINT('',(-1.154700538379,-2.,0.));
#516=CARTESIAN_POINT('',(-1.154700538379,-2.,0.));
#517=CARTESIAN_POINT('',(-1.154700538379,-2.,3.5));
#518=CARTESIAN_POINT('',(-1.06590238136,-2.,3.516159943006));
#519=CARTESIAN_POINT('',(-0.8903752542027,-2.,3.545280834493));
#520=CARTESIAN_POINT('',(-0.6356892998315,-2.,3.578414730598));
#521=CARTESIAN_POINT('',(-0.3819543112299,-2.,3.60131825511));
#522=CARTESIAN_POINT('',(-0.127496093808,-2.,3.613102677323));
#523=CARTESIAN_POINT('',(0.1276691435359,-2.,3.6130984488));
#524=CARTESIAN_POINT('',(0.3821179720626,-2.,3.601307121851));
#525=CARTESIAN_POINT('',(0.6358466301714,-2.,3.578396245174));
#526=CARTESIAN_POINT('',(0.8904043542076,-2.,3.545275244753));
#527=CARTESIAN_POINT('',(1.065909668521,-2.,3.516158616852));
#528=CARTESIAN_POINT('',(1.154700538379,-2.,3.5));
#529=CARTESIAN_POINT('',(1.154700538379,-2.,3.5));
#530=CARTESIAN_POINT('',(1.154700538379,-2.,0.));
#531=CARTESIAN_POINT('',(1.154700538379,-2.,0.));
#532=CARTESIAN_POINT('',(1.154700538379,-2.,3.5));
#533=CARTESIAN_POINT('',(1.199099616889,-1.923098540212,3.516159943006));
#534=CARTESIAN_POINT('',(1.286863180468,-1.771087589041,3.545280834493));
#535=CARTESIAN_POINT('',(1.414206157653,-1.550523082568,3.578414730598));
#536=CARTESIAN_POINT('',(1.541073651954,-1.33078213661,3.60131825511));
#537=CARTESIAN_POINT('',(1.668302760665,-1.110414856121,3.613102677323));
#538=CARTESIAN_POINT('',(1.795885379337,-0.8894352784185,3.6130984488));
#539=CARTESIAN_POINT('',(1.9231097936,-0.6690761289512,3.601307121851));
#540=CARTESIAN_POINT('',(2.049974122655,-0.4493406653609,3.578396245174));
#541=CARTESIAN_POINT('',(2.177252984673,-0.228887209616,3.545275244753));
#542=CARTESIAN_POINT('',(2.265005641829,-0.07689514892155,3.516158616852));
#543=CARTESIAN_POINT('',(2.309401076759,0.,3.5));
#544=CARTESIAN_POINT('',(2.309401076759,0.,3.5));
#545=CARTESIAN_POINT('',(2.309401076759,0.,0.));
#546=CARTESIAN_POINT('',(2.309401076759,0.,0.));
#547=CARTESIAN_POINT('',(2.309401076759,0.,3.5));
#548=CARTESIAN_POINT('',(2.265001998249,0.07690145978814,3.516159943006));
#549=CARTESIAN_POINT('',(2.17723843467,0.2289124109594,3.545280834493));
#550=CARTESIAN_POINT('',(2.049895457485,0.449476917432,3.578414730598));
#551=CARTESIAN_POINT('',(1.923027963184,0.66921786339,3.60131825511));
#552=CARTESIAN_POINT('',(1.795798854473,0.889585143879,3.613102677323));
#553=CARTESIAN_POINT('',(1.668216235801,1.110564721582,3.6130984488));
#554=CARTESIAN_POINT('',(1.540991821538,1.330923871049,3.601307121851));
#555=CARTESIAN_POINT('',(1.414127492483,1.550659334639,3.578396245174));
#556=CARTESIAN_POINT('',(1.286848630465,1.771112790384,3.545275244753));
#557=CARTESIAN_POINT('',(1.199095973308,1.923104851078,3.516158616852));
#558=CARTESIAN_POINT('',(1.154700538379,2.,3.5));
#559=CARTESIAN_POINT('',(1.154700538379,2.,3.5));
#560=CARTESIAN_POINT('',(1.154700538379,2.,0.));
#561=CARTESIAN_POINT('',(1.154700538379,2.,0.));
#562=CARTESIAN_POINT('',(1.154700538379,2.,3.5));
#563=CARTESIAN_POINT('',(1.06590238136,2.,3.516159943006));
#564=CARTESIAN_POINT('',(0.8903752542027,2.,3.545280834493));
#565=CARTESIAN_POINT('',(0.6356892998315,2.,3.578414730598));
#566=CARTESIAN_POINT('',(0.3819543112299,2.,3.60131825511));
#567=CARTESIAN_POINT('',(0.127496093808,2.,3.613102677323));
#568=CARTESIAN_POINT('',(-0.127669143536,2.,3.6130984488));
#569=CARTESIAN_POINT('',(-0.3821179720626,2.,3.601307121851));
#570=CARTESIAN_POINT('',(-0.6358466301714,2.,3.578396245174));
#571=CARTESIAN_POINT('',(-0.8904043542076,2.,3.545275244753));
#572=CARTESIAN_POINT('',(-1.065909668521,2.,3.516158616852));
#573=CARTESIAN_POINT('',(-1.154700538379,2.,3.5));
#574=CARTESIAN_POINT('',(-1.154700538379,2.,3.5));
#575=CARTESIAN_POINT('',(-1.154700538379,2.,0.));
#576=CARTESIAN_POINT('',(-1.154700538379,2.,0.));
#577=CARTESIAN_POINT('',(-1.154700538379,2.,3.5));
#578=CARTESIAN_POINT('',(-1.199099616889,1.923098540212,3.516159943006));
#579=CARTESIAN_POINT('',(-1.286863180468,1.771087589041,3.545280834493));
#580=CARTESIAN_POINT('',(-1.414206157653,1.550523082568,3.578414730598));
#581=CARTESIAN_POINT('',(-1.541073651954,1.33078213661,3.60131825511));
#582=CARTESIAN_POINT('',(-1.668302760665,1.110414856121,3.613102677323));
#583=CARTESIAN_POINT('',(-1.795885379337,0.8894352784185,3.6130984488));
#584=CARTESIAN_POINT('',(-1.9231097936,0.6690761289512,3.601307121851));
#585=CARTESIAN_POINT('',(-2.049974122655,0.4493406653609,3.578396245174));
#586=CARTESIAN_POINT('',(-2.177252984673,0.228887209616,3.545275244753));
#587=CARTESIAN_POINT('',(-2.265005641829,0.07689514892155,3.516158616852));
#588=CARTESIAN_POINT('',(-2.309401076759,0.,3.5));
#589=CARTESIAN_POINT('',(-2.309401076759,0.,0.));
#590=CARTESIAN_POINT('',(2.309401076759,0.,3.5));
#591=CARTESIAN_POINT('',(1.368080573303,0.,3.842612644162));
#592=CARTESIAN_POINT('',(0.,0.,3.842612644162));
#593=CARTESIAN_POINT('',(-1.368080573303,0.,3.842612644162));
#594=CARTESIAN_POINT('',(-2.309401076759,0.,3.5));
#595=CARTESIAN_POINT('',(0.,0.,3.671306322081));
#596=CARTESIAN_POINT('',(0.,0.,3.842612644162));
#597=CARTESIAN_POINT('',(0.,0.,3.671306322081));
#598=CARTESIAN_POINT('',(0.,0.,0.08384216101876));
#599=CARTESIAN_POINT('',(0.8146826254351,0.,4.));
#600=CARTESIAN_POINT('',(0.,0.,0.08384216101876));
#601=CARTESIAN_POINT('',(-0.8146826254351,0.,4.));
#602=CARTESIAN_POINT('',(0.,0.,4.));
#603=CARTESIAN_POINT('',(0.,0.,0.08384216101876));
#604=CARTESIAN_POINT('',(0.,0.,4.));
#605=CARTESIAN_POINT('',(0.,0.,4.));
#606=CARTESIAN_POINT('',(0.,0.,0.08384216101876));
#607=CARTESIAN_POINT('',(0.,0.,8.));
#608=CARTESIAN_POINT('',(-3.,0.,8.));
#609=CARTESIAN_POINT('',(3.,0.,8.));
#610=CARTESIAN_POINT('',(4.,0.,7.));
#611=CARTESIAN_POINT('',(-4.,0.,7.));
#612=CARTESIAN_POINT('',(0.,0.,7.5));
#613=CARTESIAN_POINT('',(0.,0.,8.));
#614=CARTESIAN_POINT('',(0.,0.,7.5));
#615=CARTESIAN_POINT('',(0.,0.,8.));
#616=MECHANICAL_DESIGN_GEOMETRIC_PRESENTATION_REPRESENTATION('',(#324,#325,
#326,#327),#617);
#617=(
GEOMETRIC_REPRESENTATION_CONTEXT(3)
GLOBAL_UNCERTAINTY_ASSIGNED_CONTEXT((#618))
GLOBAL_UNIT_ASSIGNED_CONTEXT((#624,#620,#619))
REPRESENTATION_CONTEXT('HSS08008G','TOP_LEVEL_ASSEMBLY_PART')
);
#618=UNCERTAINTY_MEASURE_WITH_UNIT(LENGTH_MEASURE(2.E-5),#624,
'DISTANCE_ACCURACY_VALUE','Maximum Tolerance applied to model');
#619=(
NAMED_UNIT(*)
SI_UNIT($,.STERADIAN.)
SOLID_ANGLE_UNIT()
);
#620=(
CONVERSION_BASED_UNIT('DEGREE',#622)
NAMED_UNIT(#621)
PLANE_ANGLE_UNIT()
);
#621=DIMENSIONAL_EXPONENTS(0.,0.,0.,0.,0.,0.,0.);
#622=PLANE_ANGLE_MEASURE_WITH_UNIT(PLANE_ANGLE_MEASURE(0.0174532925),#623);
#623=(
NAMED_UNIT(*)
PLANE_ANGLE_UNIT()
SI_UNIT($,.RADIAN.)
);
#624=(
LENGTH_UNIT()
NAMED_UNIT(*)
SI_UNIT(.MILLI.,.METRE.)
);
ENDSEC;
END-ISO-10303-21;
